Sublime - Caress Me Down Chords & Tabs

 

Caress Me Down Chords & Tabs

Sublime Chords & Tabs

Version: 2 Type: Tab 0 ratings
1 star 2 stars 3 stars 4 stars 5 stars
comments

Caress Me Down Tab

Sublime
caress me down
12/26/02
by:Doug
This tab should be correct if not tough shit
the intro is played either by guitar or if you want bass

e------------------------------------------------- 
b------------------------------------------------- 
g-------------------------------------------------  x3
d-------------------------------------------------
a-------------------------------5-4---------------
E--4/5--5-5--4/5--5-5--4/5--5-5-------------------

after that it is a series of chords
[ Tab from: http://www.guitartabs.cc/tabs/s/sublime/caress_me_down_tab_ver_2.html ]
e---------------------------------------
b---------------------------------------
g----------7-------------9--------------
d---7-7-7--7--7---7-7-7--9--7-----------
a---7-7-7--5--7---7-7-7--7--7-----------
E---5-5-5-----5---5-5-5-----5-----------

e---------------------------
b---------------------------
g----------7-------------9\-
d---7-7-7--7--7---7-7-7--9\-
a---7-7-7--5--7---7-7-7--7\-
E---5-5-5-----5---5-5-5-----

then the lyrics begin with 
"Mucho gusto miamblia bradley
I'm as horny as a ron jeremy
and if you wanna get popped in the knee just....
Comments