Sublime - Caress Me Down Chords & Tabs

 

Caress Me Down Chords & Tabs

Sublime Chords & Tabs

Version: 5 Type: Bass Tab 0 ratings
1 star 2 stars 3 stars 4 stars 5 stars
comments

Caress Me Down Bass Tab

None of the other tabs sounded right, but this sounds good to me, i still dont think its 
You can add whatever makes it sound right to you. It sounds like sometimes he might hit 
strings a couple of extra times.

[ Tab from: http://www.guitartabs.cc/tabs/s/sublime/caress_me_down_btab_ver_5.html ]
Intro
G-----------------------------------------|
D-----------------------------------------|
A--------------------------------5-4------| Do that 3 times
E---4h5-5-5---4h5-5-5---4h5-5-5-----------|


Bridge
G----------------------------------|
D----------------------------------|
A----------5------------7----------|
E---5-5-5----5---5-5-5-----5-------|


Verse/Chorus
G---------------------------------|
D---------------------------------|
A--------5-5----------7-7---------|
E---5-5------5---5-5------5-------|

any corrections or comemnts please email me at ericbrumet2@yahoo.com
Comments