Sublime - Badfish Chords & Tabs

 

Badfish Chords & Tabs

Sublime Chords & Tabs

Version: 3 Type: Tab 3 ratings
1 star 2 stars 3 stars 4 stars 5 stars
comments

Badfish Tab

   

                                   intro- random picking
                        A                                                                                Bm
e  0-----0-----0-----0-----0-----0-----0-----0-----0------------2-----2-----2-----2-----2-----2-----2-----
B  2-----2-----2-----2-----2-----2-----2-----2-----2------------3-----3-----3-----3-----3-----3-----3-----
G  2-----2-----2-----2-----2-----2-----2-----2-----2------------4-----4-----4-----4-----4-----4-----4-----
D  2-----2-----2-----2-----2-----2-----2-----2-----2------------4-----4-----4-----4-----4-----4-----4-----
A  0-----0-----0-----0-----0-----0-----0-----0-----0------------2-----2-----2-----2-----2-----2-----2-----
E  0-----0-----0-----0-----0-----0-----0-----0-----0------------2-----2-----2-----2-----2-----2-----2-----
                                            G                                                                      A
e  2------------3-----3-----3-----3-----3-----3-----3-----3------------0-----0-----0-----0-----0-----0-----
B  3------------3-----3-----3-----3-----3-----3-----3-----3------------2-----2-----2-----2-----2-----2-----
G  4------------4-----4-----4-----4-----4-----4-----4-----4------------2-----2-----2-----2-----2-----2-----
D  4------------5-----5-----5-----5-----5-----5-----5-----5------------2-----2-----2-----2-----2-----2-----
A  2------------5-----5-----5-----5-----5-----5-----5-----5------------0-----0-----0-----0-----0-----3-----
E  2------------3-----3-----3-----3-----3-----3-----3-----3------------0-----0-----0-----0-----0-----0-----
                                                                     A
e  0-----0-----0------------0-----0-----0-----0-----0-----0-----0-----0-----0---------------------------------
B  2-----2-----2------------2-----2-----2-----2-----2-----2-----2-----2-----2---------------------------------
G  2-----2-----2------------2-----2-----2-----2-----2-----2-----2-----2-----2---------------------------------
D  2-----2-----2------------2-----2-----2-----2-----2-----2-----2-----2-----2---------------------------------
A  0-----3-----0------------0-----0-----0-----0-----0-----0-----0-----0-----0---------------------------------
E  0-----0-----0------------0-----0-----0-----0-----0-----0-----0-----0-----0---------------------------------
                         Bm                                                                           G
e  2-----2-----2-----2-----2-----2-----2-----2------------3-----3-----3-----3-----3-----3-----3-----3-----
B  3-----3-----3-----3-----3-----3-----3-----3------------3-----3-----3-----3-----3-----3-----3-----3-----
G  4-----4-----4-----4-----4-----4-----4-----4------------4-----4-----4-----4-----4-----4-----4-----4-----
D  4-----4-----4-----4-----4-----4-----4-----4------------5-----5-----5-----5-----5-----5-----5-----5-----
A  2-----2-----2-----2-----2-----2-----2-----2------------5-----5-----5-----5-----5-----5-----5-----5-----
E  2-----2-----2-----2-----2-----2-----2-----2------------3-----3-----3-----3-----3-----3-----3-----3-----
       A    let ring
e  0---------------------------------------------------------------------------------------------------------------------
B  2---------------------------------------------------------------------------------------------------------------------
G  2---------------------------------------------------------------------------------------------------------------------
D  2---------------------------------------------------------------------------------------------------------------------
A  0---------------------------------------------------------------------------------------------------------------------
E  0---------------------------------------------------------------------------------------------------------------------

                                           verse- upstrokes
e  5-----5-----5-----5-------7-----7-----7-----7-------3-----3-----3-----3-------5-----5-----5-----5------------
B  5-----5-----5-----5-------7-----7-----7-----7-------3-----3-----3-----3-------5-----5-----5-----5------------
G  6-----6-----6-----6-------7-----7-----7-----7-------4-----4-----4-----4-------6-----6-----6-----6------------
D  -----------------------------------------------------------------------------------------------------------------------
A  -----------------------------------------------------------------------------------------------------------------------
E  -----------------------------------------------------------------------------------------------------------------------


e  5-----5-----5-----5-------7-----7-----7-----7-------3-----3-----3-----3-------5-----5-----5-----5------------
B  5-----5-----5-----5-------7-----7-----7-----7-------3-----3-----3-----3-------5-----5-----5-----5------------
G  6-----6-----6-----6-------7-----7-----7-----7-------4-----4-----4-----4-------6-----6-----6-----6------------
D  -----------------------------------------------------------------------------------------------------------------------
A  -----------------------------------------------------------------------------------------------------------------------
E  -----------------------------------------------------------------------------------------------------------------------
                                                  Bridge
[ Tab from: http://www.guitartabs.cc/tabs/s/sublime/badfish_tab_ver_3.html ]
e  5-----5-----5-----5-----5-----5-----5-----5-----3-----3-----3-----3-----5-----5-----5-----5------------
B  5-----5-----5-----5-----7-----7-----7-----7-----3-----3-----3-----3-----5-----5-----5-----5------------
G  6-----6-----6-----6-----7-----7-----7-----7-----4-----4-----4-----4-----6-----6-----6-----6------------
D  -----------------------------------------------------------------------------------------------------------------------
A  -----------------------------------------------------------------------------------------------------------------------
E  -----------------------------------------------------------------------------------------------------------------------

                                                Chorus


e  5-----5-----5-----5-----5-----5-----5-----5-----5-----5-----5-----5-----5-----5-----5-----5------------
B  5-----5-----5-----5-----5-----5-----5-----5-----5-----5-----5-----5-----5-----5-----5-----5------------
G  7-----7-----7-----7-----6-----6-----6-----6-----7-----7-----7-----7-----6-----6-----6-----6------------
D  -----------------------------------------------------------------------------------------------------------------------
A  -----------------------------------------------------------------------------------------------------------------------
E  -----------------------------------------------------------------------------------------------------------------------

e  5-----5-----5-----5-----5-----5-----5-----5-----5-----5-----5-----5-----5-----5-----5-----5-----4-----
B  5-----5-----5-----5-----5-----5-----5-----5-----5-----5-----5-----5-----5-----5-----5-----5-----5-----  let last crd ring
G  7-----7-----7-----7-----6-----6-----6-----6-----7-----7-----7-----7-----6-----6-----6-----6-----4-----
D  -----------------------------------------------------------------------------------------------------------------------
A  -----------------------------------------------------------------------------------------------------------------------
E  -----------------------------------------------------------------------------------------------------------------------
                                                 


                                                        verse

                                                     bridge
 

                                                       chorus


                                                        intermission

                                     A                                                                      Bm
e  0-----0-----0-----0-----0-----0-----0-----0-----0------------2-----2-----2-----2-----2-----2-----2-----
B  2-----2-----2-----2-----2-----2-----2-----2-----2------------3-----3-----3-----3-----3-----3-----3-----
G  2-----2-----2-----2-----2-----2-----2-----2-----2------------4-----4-----4-----4-----4-----4-----4-----
D  2-----2-----2-----2-----2-----2-----2-----2-----2------------4-----4-----4-----4-----4-----4-----4-----
A  0-----0-----0-----0-----0-----0-----0-----0-----0------------2-----2-----2-----2-----2-----2-----2-----
E  0-----0-----0-----0-----0-----0-----0-----0-----0------------2-----2-----2-----2-----2-----2-----2-----
                                            G                                                 A
e  2------------3-----3-----3-----3-----3-----3-----3-----3------------0---------
B  3------------3-----3-----3-----3-----3-----3-----3-----3------------2---------
G  4------------4-----4-----4-----4-----4-----4-----4-----4------------2--------- let ring
D  4------------5-----5-----5-----5-----5-----5-----5-----5------------2---------
A  2------------5-----5-----5-----5-----5-----5-----5-----5------------0---------
E  2------------3-----3-----3-----3-----3-----3-----3-----3------------0-----

                                                     solo



e  -----------------------------------------------------------------------------------------------------------------------
B  -----------------------------------------------------------------------------------------------------------------------
G  2b-----2b-----4b-------------------2-----4-----1-----2-----1------------------------------------------------------
D  ---------------------2-----4----------------------------------------2-----4-----2---------------------------------
A  -------------------------------------------------------------------------------------------2-----4------------------- ring
E  -----------------------------------------------------------------------------------------------------------------------



e  ----------------------------------------------------------------------5-----2----------------------------------------
B  ------------------------------------------------------------------------------------2-----0------------0------------
G  -----------------------------------2-----1-----1-----------------------------------------------2------------2------ let ring
D  --------------2-----4-----2--------------------------2-----4------------------------------------------------------
A  2-----4--------------------------------------------------------------------------------------------------------------
E  -----------------------------------------------------------------------------------------------------------------------


                                                               chorus






                      now youre done.  i hope it was easy. i'm sure it was accurate.
                                              

                                     by: the sublime fan


Title: badfish
Artist: sublime
Album: 40 oz. to freedom
Date: july 21
Comments