Sublime - Bad Fish Chords & Tabs

 

Bad Fish Chords & Tabs

Sublime Chords & Tabs

Version: 6 Type: Tab 0 ratings
1 star 2 stars 3 stars 4 stars 5 stars
comments

Bad Fish Tab

   
----------------------- BADFISH---SUBLIME ------------------

By: Matt Anderson
This is my first tab so tell me what you think
 
A	        Bb7			G

e|-------|      e|-----|	       e|-----|
B|--2----|      B|--4--|	       B|-----|
G|--2----|      G|--4--|	       G|-----|
D|--2----| 	D|--4--|	       D|--5--|
A|--0----| 	A|--2--|	       A|--5--|
E|-------|	E|-----|   	       E|--3--|

 
e----------------------------------------------------------|
B|--2----------2--------------------------------------------
G|--2--2----------2------2-------------2--------------------
D|--2------2----------2------2------2---------------------- 
A|--0-----------------------------0-------------------------
E|---------------------------------------------------------- 

e|----------------------------------------------------------
B|--4----------4------------------------------------------- 
G|--4--4----------4------4----------------------------------
D|--4------4----------4------4------------------------------
A|--2-----------------------------2-------------------------
E|----------------------------------------------------------

e|----------------------------------------------------------
B|----------------------------------------------------------
G|--5----------5--------------------------------------------
D|--5--5----------5-------5---------------------------------
A|--5------5----------5-------5-----------------------------
E|--3------------------------------3------------------------

e|----------------------------------------------------------
B|--2----------2--------------------------------------------
G|--2--2----------2------2-------------2--------------------
D|--2------2----------2------2------2-----------------------
A|--0-----------------------------0-------------------------
E|----------------------------------------------------------

e|----------------------------------------------------------
B|--4----------4--------------------------------------------
G|--4--4----------4------4----------------------------------
D|--4------4----------4------4----------------------------- 
A|--2-----------------------------2-------------------------
E|----------------------------------------------------------

e|---------------------------------------------------------- 
B|--------------------------------------2-----------------
G|--5----------5------------------------2------------------
D|--5--5----------5-------5-------------2-------------------
A|--5------5----------5-------5---------0-------------------
E|--3------------------------------3---------9~~~3--0-------
[ Tab from: http://www.guitartabs.cc/tabs/s/sublime/bad_fish_tab_ver_6.html ]
Sorry but you will have to figure out the drum pattern yourself


A			           Bb7
They keep grabbing hold of me , Tell me that I’ll never be set free
 
G                      A
I’m a parasite, creep and crawl I step into the light

A                                 Bb7
Two pints of booze , Tell me I killed the badfish too I killed the badfish too

G                                                        A
But I ain’t got no money to spend , And hope this night never ends

A                               Bb7
Lord knows I weak , and wont somebody get me off of this reee…..

G                                              A
Baby you’re a big blue whale , Grabbin me from under that diamond field  (??don’t think  that’s right lyrics)

A                                               Bb7
Swim at a fish I’d never hurt , water is too polluted now with germs

G                                                       A
Riding when its ten feet over head , grab the weed underneath my bed underneath my bed but I 

A                                                 Bb7
Ain’t got no quarrels with Jah , and got no time to get high

G                                                                                                           A
Lord knows I’m weak and wont somebody get me off of this reee….feeer…..



SOLO: #: let ring >: slide ~: bend ^: half bend
 
------------------------------------------------------------
--^-------~------^------------------------|-----------------
--2---2---4----4-4--------2>4--2----------|----------4--2---
~~~- -------------2>(4)--------3-2--------|------24----2----
-------------------------------------2>3#-|--2>3------------
------------------------------------------------------------
                                                              

--5--2------------------------------------------------------
 -------3-2--2--#-#-#-#-------------------------------------
 ------------2--#-#-#-#-------------------------------------
 ------------2--#-#-#-#-------------------------------------
  -----------0--#-#-#-#-------------------------------------
 -----------------------------------------------------------



(Back to slow ska style play) 


A                                                   Bb7
Aint got no corals with God. . . . Aint got no time to grow old. . . 

G                                  A
Lord knows I'm weak. . .Wont somebody get me off of this reef. . .
Comments