Sublime - Bad Fish Solo Chords & Tabs

 

Bad Fish Solo Chords & Tabs

Sublime Chords & Tabs

Version: 1 Type: Tab 0 ratings
1 star 2 stars 3 stars 4 stars 5 stars
comments

Bad Fish Solo Tab

Band: Sublime
Song:  Bad fish
Tabbed:  Boris Nastukov


[ Tab from: http://www.guitartabs.cc/tabs/s/sublime/bad_fish_solo_tab.html ]
Finally something right.
~ bend
|---------------------------------------------------------|
|---------------------------------------------------------|
|----2---2----4--4---4~----------2p4---2 -----------------|
|----------------------------2/4-----------22p4-3 --------|
|----------------------------------------------------2/3--|
|---------------------------------------------------------|

|------------------------------|
|------------------------------|
|---------------4-2------------|
|---------2-4------3p2~--------|
|---2/3------------------------|
|------------------------------|


|---5--2------------2-----|
|-----------3323----2-----|
|-------------------2-----|
|-------------------2-----|
|-------------------0-----|
|-------------------------|
Comments