Sublime - Bad Fish Chords & Tabs

 

Bad Fish Chords & Tabs

Sublime Chords & Tabs

Version: 3 Type: Bass Tab 0 ratings
1 star 2 stars 3 stars 4 stars 5 stars
comments

Bad Fish Bass Tab

-----------------
badfish / sublime
-----------------

tabbed by thomas
th0mash(at)o2(dot)pl


verse;
G||--------------------------|--------------------------|
D||-----------7--9--7--6--7--|--------9--11--12/--------|
A||--------7-----------------|------9-------------------|
E||--5---5-------------------|--7--------------------0--|

|---------------------------|---------------------------|
|--------5-5-5--------------|--------7-7-7--------------|
|---------------------5--5--|---------------------7--7--|
|--3---3--------3--3--------|--5---5--------5--5--------|

[ Tab from: http://www.guitartabs.cc/tabs/s/sublime/bad_fish_btab_ver_3.html ]
chorus in;
|--------------------------|--------------------------|
|--------------------------|--------------------------|
|--------------------------|--5---5-5--5--5--5--5--5--|
|--5---5-5--5--5--5--5--5--|--------------------------|

--------------------------|---------------------------|
--------------------------|--------------------7-7-7--|
--------------------------|---------------------------|
--3---3-3--3--3--3--3--3--|--5---5-5--5--5--5---------|


chorus main x3;
|-------------------------|--------------------------|
|-------------------------|--------------------------|
|--5---5-5--5--5--5--5----|--------------------------|
|-------------------------|--5---5-5--5--5--5--5--5--|


chorus outro;
|-------------------------|-------------------||
|-------------------------|-------------------||
|--5---5-5--5--5--5--5----|--7----------------||
|-------------------------|-------------------||
Comments