Sublime - Bad Fish Chords & Tabs

 

Bad Fish Chords & Tabs

Sublime Chords & Tabs

Version: 2 Type: Bass Tab 0 ratings
1 star 2 stars 3 stars 4 stars 5 stars
comments

Bad Fish Bass Tab

Artist: Sublime
Song: Badfish
Tabbed by: Ryan VanPatten (futrebartender5@netscape.net)

Verse 1
G -------------------------------------------------------|
D ----------------7--9--7--6--7-----------9--11--12------|
A ------------7------------------------9-----------------|
E -----5--5-------------------------7--------------------|
[ Tab from: http://www.guitartabs.cc/tabs/s/sublime/bad_fish_btab_ver_2.html ]
Verse 2
G ---------------------------------|
D ----55------55------77-----------|
A -----------------------------77--|
E -3-3--3--3-3--3--5-5--5--5-5---5-|

Chorus
G ------------------------------------------------|
D ------------------------------------------------|
A -------------5-555-5-555------------------------|
E -5-555-5-555-------------3-333-3-333-5-555-5-555|

Verse 1 
Verse 2
Verse 1
Verse 2
Chorus x3
Verse 1
Verse 2
Verse 1 
Verse 2
Chorus x3	
(Guitar solo)
Verse 1
Verse 2
Verse 1
Verse 2
Chorus x3
Comments