Sublime - April 29 1992 Chords & Tabs

 

April 29 1992 Chords & Tabs

Sublime Chords & Tabs

Version: 5 Type: Tab 0 ratings
1 star 2 stars 3 stars 4 stars 5 stars
comments

April 29 1992 Tab

April 26, 1992 by Sublime (one of the greatest bands of our time; you should listen to
all their tracks!)
Bradley Nowell - Rest In Peace
Tre Reinhart
tredaug@ucla.edu

Oh yeah, by the way, this was tabbed out on an acoustic. And on those wahs (reggae/ska
style),
you can use more or less of the chord (Barred D, and Barred A).


APRIL 26, 1992


Intro and Into The Song (Palm-muted):

e|---------|---------|---------|---------|
B|---------|---------|---------|---------|
G|---------|---------|---------|---------|
D|---------|---------|---------|---------|
A|-5-5---5-|-3333---3|-5-5---5-|------3-3|
E|-----5---|-----3h5-|-----5---|-1111----|

e|---------|---------|---------|---------|
B|---------|---------|---------|---------|
G|----7--7-|--7--7---|--7--7---|--7--7---|
D|----7--7-|--7--7---|--7--7---|--7--7---|
A|-5~~~~~~~|--5--5---|--5--5---|--5--5---|
E|---------|---------|---------|---------|

For The Most Of The Rest Of The Song, Alternate Between First This (Slightly Distorted,
Reggae/Ska Style Upstrokes):

e|---------|---------|---------|---------|
B|--7--7---|--7--7---|--7--7---|--7--7---|
G|--7--7---|--7--7---|--7--7---|--7--7---|
D|--7--7---|--7--7---|--7--7---|--7--7---|
A|--5--5---|--5--5---|--5--5---|--5--5---|
E|---------|---------|---------|---------|

And This:
[ Tab from: http://www.guitartabs.cc/tabs/s/sublime/april_29_1992_tab_ver_5.html ]
e|---------|---------|---------|---------|
B|---------|---------|---------|---------|
G|--6--6---|--6--6---|--6--6---|--6--6---|
D|--7--7---|--7--7---|--7--7---|--7--7---|
A|--7--7---|--7--7---|--7--7---|--7--7---|
E|--5--5---|--5--5---|--5--5---|--5--5---|

Bridge: (Palm-muted):

e|---------|---------|---------|---------| (4 Times)
B|---------|---------|---------|---------|
G|---------|---------|---------|---------|
D|-----3-5-|------3-5|-----3-5-|------3-5|
A|-5-5-----|-5555----|-5-5-----|-5555----|
E|---------|---------|---------|---------|

e|---------|---------|---------|---------| (4 Times)
B|---------|---------|---------|---------|
G|---------|---------|---------|---------|
D|---------|---------|---------|---------|  
A|-5---543-|-----3---|-5-5---5-|------3-3|
E|---5-----|-3h5-----|-----5---|-1111----|

Piano Part Here:

e|---------|---------|---------|---------| 
B|---------|---------|---------|---------|
G|---------|---------|---------|---------|
D|---------|---------|---------|---------|
A|-5~~~~~~~|3-5~~~~~~|3-0~~~~~~|~~~~~~~~~|
E|---------|---------|---------|---------|

For The Rest Of The Song, Alternate Between These Again (Slightly Distorted, Reggae/Ska
Style Upstrokes):

e|---------|---------|---------|---------|
B|---------|---------|---------|---------|
G|--7--7---|--7--7---|--7--7---|--7--7---|
D|--7--7---|--7--7---|--7--7---|--7--7---|
A|--5--5---|--5--5---|--5--5---|--5--5---|
E|---------|---------|---------|---------|

And

e|---------|---------|---------|---------|
B|---------|---------|---------|---------|
G|---------|---------|---------|---------|
D|--7--7---|--7--7---|--7--7---|--7--7---|
A|--7--7---|--7--7---|--7--7---|--7--7---|
E|--5--5---|--5--5---|--5--5---|--5--5---|
Comments