Sublime - April 29 1992 Chords & Tabs

 

April 29 1992 Chords & Tabs

Sublime Chords & Tabs

Version: 4 Type: Tab 0 ratings
1 star 2 stars 3 stars 4 stars 5 stars
comments

April 29 1992 Tab

e|---------------------------------------------------------------------------|
B|---------------------------------------------------------------------------|
G|---------------------------------------------------------------------------|
D|---------------------------------------------------------------------------|
A|-5-5-0-5-3-3-------3-3---5-5-0-5--------------3-3--------------------------|
E|-----------------------------------------1-1-1-----------------------------|
do this 2 times 
e|---------------------------------------------------------------------------|
B|---------------------------------------------------------------------------|
G|---------------------------------------------------------------------------|
D|-------3-5---------3-5-----------------------------------------------------|
A|--5-5------5-5-5-5---------------------------------------------------------|
E|---------------------------------------------------------------------------|
do this 2 times 
e|---------------------------------------------------------------------------|
B|---------------------------------------------------------------------------|
G|---------------------------------------------------------------------------|
D|---------------------------------------------------------------------------|
A|-5---5-5---3-3---3--5-5--0-5----------------3-3----------------------------|
E|---5----------3----------------------1-1-1---------------------------------|
do this 4 times 
e|---------------------------------------------------------------------------|
B|---------------------------------------------------------------------------|
G|---------------------------------------------------------------------------|
D|---------------------------------------------------------------------------|
A|-5--------5---4--------4---5-----------------------------------------------|
E|---------------------------------------------------------------------------|
do this 4 times 
e|---------------------------------------------------------------------------|
B|---------------------------------------------------------------------------|
G|---------------------------------------------------------------------------|
D|-------3-5-----------3-5---------------------------------------------------|
A|--5-5------5-5-5-5---------------------------------------------------------|
E|---------------------------------------------------------------------------|


if you have any questions e-mail me at chavarria88@aol.com if you go to fohi look
for me i have a black b.c.rich warlock        -mario chavarria-
[ Tab from: http://www.guitartabs.cc/tabs/s/sublime/april_29_1992_tab_ver_4.html ]
Comments