Sublime - April 29 1992 Chords & Tabs

 

April 29 1992 Chords & Tabs

Sublime Chords & Tabs

Version: 1 Type: Bass Tab 0 ratings
1 star 2 stars 3 stars 4 stars 5 stars
comments

April 29 1992 Bass Tab

Here is the bass tab for Sublime's April 26, 1992 Miami.  
This song is also covered by LBDAS at concerts. 
Most of the tabs you will find for this song on the net are wrong, 
but this is right. Here is a real big hint : 
Listen to the CD if you want to play it right. 
If you dont have the CD then download the MP3 because it really helps. 
I have seen the the god of thunder himself Eric Wilson play this live. 
This bass tab was transcribed by Nick Wayser. Enjoy...


Intro: 

G------------------------------------------------
D------------------------------------------------
A-5-5---5--3-3-----3--5-5---5-----------3-3-3-3--
E-----5--------3-5--------5----1-1-1-1-----------

Verse:

G------------------------------------------------
D----------------------------------------------5-
A------------------------------------------------
E-5-5-5-5-5-5-5-5-5-5-O-5--5-5-5-5-5-5-5-5-5-5---

G------------------------------------------------
D----------------------------------------------5-
A-5-5-5-5-5-5-5-5-5-5-O-5--5-5-5-5-5-5-5-5-5-5---
E------------------------------------------------
[ Tab from: http://www.guitartabs.cc/tabs/s/sublime/april_29_1992_btab.html ]
G------------------------------------------------
D---------------------5------------------------5-
A------------------------------------------------
E-5-5-5-5-5-5-5-5-5-5---5--5-5-5-5-5-5-5-5-5-5---

G------------------------------------------------
D----------------------------------------------5-
A-5-5-5-5-5-5-5-5-5-5-O-5--5-5-5-5-5-5-5-5-5-5---
E------------------------------------------------

Bridge:

G------------------------------------------------
D------------------------------------------------
A-O-O-3-5--O-O-O-O-3-5--O-O-3-5--O-O-O-O-3-5-----
E------------------------------------------------

Outro:

G------------------------------------------------
D------------------------------------------------
A-5---4-3-3-----3------5-------------3-3-3-3-----
E---5-------3-5----5-5---5--1-1-1-1--------------

Like I said listen to the CD or MP3 to get the 
timing, rythm, and song structure. Once you figure everything out 
and know what you're doing the song is easy to play.
If you have any comments e-mail me at sublimebpp@yahoo.com
Let Sublime's legacy live on. And if LBDAS is in your area SEE THEM!!!
Peace out...
Comments