Sublime - April 26 1992 Miami Chords & Tabs

 

April 26 1992 Miami Chords & Tabs

Sublime Chords & Tabs

Version: 1 Type: Tab 2 ratings
1 star 2 stars 3 stars 4 stars 5 stars
comments

April 26 1992 Miami Tab

   
Title: April 26, 1992 (Miami)
Artist: Sublime
Album: Sublime
Transcribed by: Jacko


Ok, the intro is very easy.
[ Tab from: http://www.guitartabs.cc/tabs/s/sublime/april_26_1992_miami_tab.html ]
e--------------------------------------------------------------------
B--------------------------------------------------------------------
G--------------------------------------------------------------------
D--------------------------------------------------------------------
A--5-5--0--5--0---3--3--------3--5--5--0--5--3-------------3--3--3--3
E-----------------------3--5--------------------1--1--1--1-----------


Also, the second part after the chorus is this

e-------------------------------------------------
B-------------------------------------------------
G------------------------------------------------
D--------3--5--------------3--5--------------------
A--5--5--------5--5--5--5--------------------------
E-------------------------------------------------
And after that, its just upstrokes of a "d" chord and an "a" chord.
Until the end of the second intro part. Then its just an "a" and a 
"g". 
THats it.
Comments