Sublime - 40 Oz To Freedom Chords & Tabs

 

40 Oz To Freedom Chords & Tabs

Sublime Chords & Tabs

Version: 3 Type: Tab 0 ratings
1 star 2 stars 3 stars 4 stars 5 stars
comments

40 Oz To Freedom Tab

   
-------------------------------------------------------------------------------
40 Oz. To Freedom - Sublime
-------------------------------------------------------------------------------
Tabbed by: nonpoint42
Email: me2846@hotmail.com

Tuning: standard

Intro/verse:
The rhythm is easy to figure out. Another guitar plays little lead licks. They are very
hard to figure out but they are mainly on the 3rd, 5th, and 6th frets on the 6th, 5th
and 4th strings, so you can improvise your way through it.
    G       C   Dm
e|--3-3-3-3-3-3-5-5--------------------------|
B|--3-3-3-3-5-5-7-7--------------------------|
G|--4-4-4-4-5-5-7-7--------------------------|
D|-------------------------------------------|
A|-------------------------------------------|
E|-------------------------------------------|

The chorus is this:
    G         Bb   F
e|------------------------------------------|
B|------------------------------------------|
G|------------------------------------------|
D|--5----5----8----3------------------------|
A|--5----5----8----3------------------------|
E|--3----3----6----1------------------------|

During the part where it is just the voices talking, you he plays pretty random licks
on the same frets and strings as in the first verse. The second verse is the same as the first.
[ Tab from: http://www.guitartabs.cc/tabs/s/sublime/40_oz_to_freedom_tab_ver_3.html ]
The guitar solo is 2 guitars. I couldn't figure out exactly what bot of them are doing,
but I think I did pretty well. The way I tabbed it out is basically correct, but if it
doesn't sound right just try play other licks in the same area as the one I have:
      gtr 1
e|---7-8-10----7-8-7---7h8-7----------------|
B|--8---------8-----8-------8--6p5---------|
G|---------------------------------7-5------|
D|------------------------------------------|
A|------------------------------------------|
E|------------------------------------------|
 |    gtr 2
e|-------------7-8-7------------------------|
B|------------8-----8-----------------------|
G|--------------------10-7------------------|
D|-------------------------10-9--9-10-------|
A|-----------------------------10-----------|
E|------------------------------------------|
      gtr 1
e|---7-8-10---12h131210-------7-8-7---------|
B|--8------------------13p12-8-----86p5----|
G|--------------------------------------7-5-|
D|------------------------------------------|
A|------------------------------------------|
E|------------------------------------------|
 |   gtr 2
e|-----------12-13--15----------------------|
B|---13-12-15-----15--15--------------------|
G|-12--------------------10-9--9-10-12b-----|
D|---------------------------12-------------|
A|------------------------------------------|
E|------------------------------------------|
    gtr 1
e|-------7-8-7------------------------------|
B|------8-----8--75h6-5h6p5h6-5h6p5h6-6-5--|
G|---7--------------------------------------|
D|------------------------------------------|
A|------------------------------------------|
E|------------------------------------------|
 |  gtr 2
e|---------12-13---15-------12--12-----1213-|
B|---13-15-------15---15----------12-15-----|
G|-----------------------12-----------------|
D|------------------------------------------|
A|------------------------------------------|
E|------------------------------------------|
     gtr 1
e|-13-15-12-13-15-12-13-15-1512-13-15-12b--|
B|------------------------------------------|
G|------------------------------------------|
D|------------------------------------------|
A|------------------------------------------|
E|------------------------------------------|
 |   gtr 2
e|-------------------------------------------|
B|-------------------------------------------|
G|-------------------------------------------|
D|-------------------------------------------|
A|-------------------------------------------|
E|-------------------------------------------|

   After that you play the chorus again and then that's it

| /  slide up
| \  slide down
| h  hammer-on
| p  pull-off
| ~  vibrato
| +  harmonic
| x  Mute note
| b  bend
===============================================================================
Comments