Sublime - 40 Oz To Freedom Chords & Tabs

 

40 Oz To Freedom Chords & Tabs

Sublime Chords & Tabs

Version: 1 Type: Tab 3 ratings
1 star 2 stars 3 stars 4 stars 5 stars
comments

40 Oz To Freedom Tab

   
Sublime - 40 Oz. to Freedom

P = Pull off
H = Hammer On
S.s. = Shift Slide: Same as legato slide, except the second note is struck.
L.S. = Legato Slide: Strike the first note and then slide the same fret-hand finger up or down to the second note. 
       The second not is not struck.

Intro (Moderately = 92)

Gtr. 1 (clean)

|---3-----3-----3-------3---|-----3---3------5---------5----|---3-----3-----3-------3-|
|---3-----3-----3-------3---|-----5---5------7---------7----|---3-----3-----3-------3-|
|---4-x---4-x---4-x-x-x-4-3-|---x-5-x-5--x---7--x--x---7--x-|---4-x---4-x---4-x-x-x-3-|
|---------------------------|-------------------------------|-------------------------|
|---------------------------|-------------------------------|-------------------------|
|---------------------------|-------------------------------|-------------------------|

Gtr. 2 (clean)

|---3-----3-----------------|-------------------------------|-------------------------|
|---3-----3-----------------|-------------------------------|-------------------------|
|---4-----4-----------------|-------------------------------|-------------------------|
|---------------------------|-------------------------------|-------------------------|
|---------------------------|-------------------------------|-------------------------|
|---------------------------|-------------------------------|-------------------------|
|---------------------------|-------------------------------|-------------------------|


Verse

               L.S.
|---3---3------3-/-5----------|-----------------------------|-------------------------------|
|---3---5------5-/-7---7------|-----------------------------|-------------------------------|
|---3-x-5-x----5-/-7---7------|-----------------------------|-------------------------------|
|-----------------------------|-----------------------------|------------------------8-5----|
|-----------------------------|-------2-------------5--2----|---3-3-3-3-2-3----6-6-6-----6--|
|-----------------------------|-3-----------0-3---3------3--|-------------------------------|

|---------------------------|-------------------------------|-----------------------------|
|---------------------------|-------------------------------|-----------------------------|
|---------------------------|-------------------------------|-----------------------------|
|---------------------------|-------------------------------|-----------------------------|
|----------2-----5----2--5--|---5-5-5-5--5-5----------------|-------2-----5--------2-5-2--|
|----3----------------------|----------------6--6-6-6--5-6--|-3---------------------------|
              									  L.s.	
|---------------------------------|----------------------|----------------------------------|------|
|---------------------------------|----------------------|----------------------------------|------|
|---------------------------------|----------------------|--------------------4-/-5--4--2-|------|
|----------------------5---8-8----|----------------------|----------------------------------|------|
|----3-3-3-3-2-3-----6---6-----6--|-------2-----5------2-|---3-3----3----5------------------|------|
|---------------------------------|-3----------------3---|----------------------------------|-3----|


Chorus (distortion)

			        L.S.                                      L.s.                          L.s.
|--------------------------------------|----------------------------------------|------------------------------|
|--------------------------------------|----------------------------------------|------------------------------|
|--------------4--4--4--4---4---4-/-7--|-7---7----------------------2-----------|-4----4-----4-4--4--4--4-/-7--|
|----5-----5---5--5--5--5---5---5-/-8--|-8---8---8----8--x--3---3---3-----3-/-5-|-5----5-----5-5--5--5--5-/-8--|
|----5-----5---5--5--5--5---5---5-/-8--|-8---8---8----8--x--3---3---3-----3-/-5-|-5----5-----5-5--5--5--5-/-8--|
|----3-----3---3--3--3--3---3---3-/-6--|-6---6---6----------1---1---1-----1-/-3-|-3----3-----3-3--3--3--3-/-6--|

                     S.S.                                                              L.s.
|------------------------------------------------|---------------------------------------------|
|------------------------------------------------|---------------------------------------------|
|----7--7----7--7----7-/-2----2----2------2-/-4--|-4----------4-----4--4--4--4----4----4-/-7---|
|----8--8----8--8----8-/-3----3----3------3-/-5--|-5----------5-----5--5--5--5----5----5-/-8---|
|----8--8----8--8----8-/-3----3----3------3-/-5--|-5----------5-----5--5--5--5----5----5-/-8---|
|----6--6----6--6----6-/-1----1----1------1-/-3--|-3----------3-----3--3--3--3----3----3-/-6---|

                                L.s.                        L.s.                                L.s.
|-------------------------------------|----------------------------|-----------------------------------|
|-------------------------------------|----------------------------|-----------------------------------|
|----7--7--7--7----2----2--2----2-/-4-|-4--4--4---4-4-4-4---4-/-7--|--7--7--7--7---2-----2--2---2-/-4--|
|----8--8--8--8-x--3----3--3----3-/-5-|-5--5--5---5-5-5-5---5-/-8--|--8--8--8--8-x-3-----3--3---3-/-5--|
|----8--8--8--8-x--3----3--3----3-/-5-|-5--5--5---5-5-5-5---5-/-8--|--8--8--8--8-x-3-----3--3---3-/-5--|
|----6--6--6-------1----1--1----1-/-3-|-3--3--3---3-3-3-3---3-/-6--|--6--6--6------1-----1--1---1-/-3--|


Interlude


|----------------------------------------|--------------------------------------------------|
|----------------------------------------|--------------------------------------------------|
|----------------------------------------|--------------------------------------------------|
|----------------------------------------|----------2-----2----------------------8-----5----|
|----------2-------------5--2----2--5----|----2--3--------------3-/-6---6-----6-------------|
|----3----------------3-------3----------|--------------------------------------------------|


|---------------------------------------------------|-------------------------------------------------|
|---------------------------------------------------|-------------------------------------------------|
|---------------------------------------------------|-------------------------------------------------|
|---------------------------------------------------|-------------------------------------------------|
|------------2-------------------2-------5----------|--5--5--5--5--5----------------------------------|
|----3----3------------------3-------3---------3----|-------------------------6--6--6--6----5----6----|


|----------------------------------------------------|------------------------------------------------------|
|----------------------------------------------------|------------------------------------------------------|
|----------------------------------------------------|------------------------------------------------------|
|----------------------------------------------------|----------------2----------------------5--8---5-------|
|---------------------------------5--2------2---5----|----3---3--3-------3----------6--6--6-------------6---|
|-----3--3--------------------3---------3------------|------------------------------------------------------|

               										         H   P  H
                                                                                                __________
                                                                                               /            
|-------------------------------------------------------------|----------------------------------------------|
|-------------------------------------------------------------|----------------------------------------------|
|-------------------------------------------------------------|--------------------------------4----5--4--5--|
|-------------------------------------------------------------|--------------2----5----0---------------------|
|----------------2------------------------2---5------2--------|-3--------3-----------------------------------|
|--------3----3-----------------------3-------------------3---|----------------------------------------------|


Verse
[ Tab from: http://www.guitartabs.cc/tabs/s/sublime/40_oz_to_freedom_tab.html ]
       H  P  H  P  H  P  H  P  H  P  H  P  H  P  H   P
       _________________________________________________
      /                                                 
|-----------------------------------------------------|---------------------------------------------|
|-----------------------------------------------------|---------------------------------------------|
|-----4--5--4--5--4--5--4--5--4--5--4--5--4--5--4--5--|-4-------------------------------------------|
|-----------------------------------------------------|-------------2-----------------5-----8--5----|
|-----------------------------------------------------|----------3------3-------6--6----------------|
|-----------------------------------------------------|---------------------------------------------|


|-----------------------------------------|----------------------------------------|--------------------------------------|
|-----------------------------------------|----------------------------------------|--------------------------------------|
|-----------------------------------------|----------------------------------------|--------------------------------------|
|-----------------------------------------|----------------------------------------|--------------------------------------|
|-----6-------2---5---------2-----5---5---|-----------5----5--------5-----8--8--8--|-8-----------2---5-------2----5-5--5--|
|---------3--------------3-----3----------|-3-----------------6--6-----6-----------|----3--3--3------------3----3---------|

													H  P  H
 													________
												       /        
|-------------------------------------------|----------------------------|----------------------------------------|
|-------------------------------------------|----------------------------|----------------------------------------|
|-------------------------------------------|----------------------------|-----------------------------4--5--4--5-|
|-------------------------------------5-----|----------------------------|-------------2--------------------------|
|-----5-----2-----3---3------6--6--6-----6--|--------2-----5---------2---|-3--3--3--3------3---5---5--------------|
|--------3-----3----------------------------|--3-----------------3-------|----------------------------------------|


Solo
                                               H                 P                                    H
					       __                __                                  ___            L.s.
                                              /                /                                  /                
|---------7--8--10----------7--8--7------|----7--8--7------------------------|------7--8--10--------12--13--12--10-----------|
|------8-----------------8-----------8---|-------------8--------6--5---------|---8----------------------------------13-/-12--|
|----------------------------------------|----------------------------7--5---|-----------------------------------------------|
|----------------------------------------|-----------------------------------|-----------------------------------------------|
|----------------------------------------|-----------------------------------|-----------------------------------------------|
|----------------------------------------|-----------------------------------|-----------------------------------------------|



|-----10--------7--8--7-----|-----------------------------------------|-------------------12--13------15---------------------------|
|------------8-----------8--|-----------------------------------------|-------13--12--15----------15------15----13--15--12------12-|
|---------------------------|--10---7---------------------------------|---12------------------------------------------------12-----|
|---------------------------|----------10--9------9--10---9---8---8---|------------------------------------------------------------|
|---------------------------|-----------------10----------------------|------------------------------------------------------------|
|---------------------------|-----------------------------------------|------------------------------------------------------------|

			P							   H     H  P  H     H  P  H 
			__                                                         __    ________    ________		
                       /       1/4b     S.S.                                     /    /          /        
|-------7--8--7------------------^----|-------------------7---8--7-----------|--------------------------------------------|
|----8-----------8-----6--5------|----|----------------8------------8--------|----5--6--5--6--5--6--5--6--5--6----6--5--3-|
|----------------------------7---5----|--(5)-/-7--------------------------7--|--------------------------------------------|
|-------------------------------------|--------------------------------------|--------------------------------------------|
|-------------------------------------|--------------------------------------|--------------------------------------------|
|-------------------------------------|--------------------------------------|--------------------------------------------|



                                1/4B  FB                                 let ring.
|--------------------------------^---/-------------|-------------12----------15----12---12------|------12-13-12----12-------15---13-13-/-12------12-|
|--(12)--------------------------|--/---------(12)-|-13------15-----13----15---------------12-x-|-15-x----------15----13-15-------------------15----|
|-------10---10-10-9----10---10-12-12------12------|----(12)--------------------12--------------|---------------------------------------------------|
|--------------------12----------------------------|--------------------------------------------|---------------------------------------------------|
|--------------------------------------------------|--------------------------------------------|---------------------------------------------------|
|--------------------------------------------------|--------------------------------------------|---------------------------------------------------|

                                                              
                                                              1/4B HOLD BEND
                         S.S.                                   ^........|    S.S.
|----------------------------------------------------|----------|------------------------------------------|
|----(3)-----------------3-/-12--------13------------|-12--13--12------------------------------------------|
|------------------------------------------------12--|----------------------(12)- 10--10--------------10--|
|----------------------------------------------------|-----------------------------------------------------|
|----------------------------------------------------|-----------------------------------------------------|
|----------------------------------------------------|-----------------------------------------------------|

                                                                         1/2B
                                                                          ^
|----13--15--12--13--15--12--13--15--15----12--13--15------12-----|-13----12-----------13----------------------------|
|-----------------------------------------------------------------|--------------------------13--12------12----------|
|-----------------------------------------------------------------|----------------------------------12------12---12-|
|-----------------------------------------------------------------|--------------------------------------------------|
|-----------------------------------------------------------------|--------------------------------------------------|
|-----------------------------------------------------------------|--------------------------------------------------|


Chorus
                                      
   let ring..........................|
                                      L.S.                      L.S.                     L.S. 
|--------3------------------------------------|-----------------------------------1--------------|
|--------3------------------------------------|-----------------------------------1--------------|
|--------4--------4-------------4-----4-------|-------------------------2----2----2--------------|
|--5-----5-----------------5----------5-/-8---|--8----8----8----8-/-3---3----3----3------3-/-5---|
|--5-----5----------------------------5-/-8---|--8----8----8----8-/-3---3----3----3------3-/-5---|
|--3-----3----------------------------3-/-6---|--6----6----6----6-/-1---1----1----1------1-/-3---|
Comments