Sublime - 40 Oz To Freedom Chords & Tabs

 

40 Oz To Freedom Chords & Tabs

Sublime Chords & Tabs

Version: 3 Type: Bass Tab

40 Oz To Freedom Bass Tab

This is pretty much the right way to play the verse, look at the other guys for a 
accurate chorus

[ Tab from: http://www.guitartabs.cc/tabs/s/sublime/40_oz_to_freedom_btab_ver_3.html ]
G|--------------------------7---------------------------------------------------|
D|--------------5-5-5-----------------------------------------------------------|
A|--------55-----------5---------33-3-3--3--5-5-5-5-----------------------------|
E|--3---------------------------------------------------------------------------|

G|--------------------------7--------------------------------------------------|
D|--------------5-55-----------------------------------------------------------|
A|--------55-----------5---------55-5-5-55-------------------------------------|
E|--3--------------------------------------------66-6-66-----------------------|