Sublime - 40 Oz To Freedom Chords & Tabs

 

40 Oz To Freedom Chords & Tabs

Sublime Chords & Tabs

Version: 1 Type: Bass Tab 0 ratings
1 star 2 stars 3 stars 4 stars 5 stars
comments

40 Oz To Freedom Bass Tab

Song: 40 Oz To Freedom
Band: Sublime
Album: 40 Oz to Freedom
Tabbed by: Rob MacGuffie (SubDubLBC@aol.com)



 Intro:
 |--------------------------------------------|
 |--------------------------------------------|
 |-----------------------3-3-3-3-3--5-5-5-5-5-|
 |-3-3-3-3-3--3-3-3-3-3-----------------------|
[ Tab from: http://www.guitartabs.cc/tabs/s/sublime/40_oz_to_freedom_btab.html ]
 Main verse: Played most of the time
 |----------------------------------------|
 |----------------------------------------|
 |-----2---5-5-5-2---3-3-3-3-3--5-5-5-5-5-|
 |-3-3---3--------------------------------|

 Verse variation: Listen for when this is played
 |--------------------------------------|
 |--------------------------------------|
 |-----2---5-5-5-2--5-5-5-5-5-----------|
 |-3-3---3--------------------6-6-6-6-6-|

 Chorus:
 |------------------------------------------|
 |------------------------------------------|
 |------5-5--------5--1-1-1-1-1-------------|
 |-3-3-3-3--3-3-3-3---------------1-1-1-1-1-|

Comments