Sublevacion - Sentimiento Chords & Tabs

 

Sentimiento Chords & Tabs

Sublevacion Chords & Tabs

Version: 1 Type: Tab 0 ratings
1 star 2 stars 3 stars 4 stars 5 stars
comments

Sentimiento Tab

   
- Sublevacion -
- Sentimiento -

Antes q todo un saludo a ricky y a julio y un gran abrazo mucha los admiro mucho. Viva el rock chapin.

Intro:
E----------------------------------------------------------------
B-----------------1--------1--------3---------0------------------
G---------------2---2----0---0----0---0-----0---0----------------
D----------------------------------------------------------------
A---0-3---2----0--------3----------------2-----------------------
E-------3----------------------3---------------------------------

Se repite dos veces.

Verso:
E----------------------------------------------------------------
B-----------------1--------1--------3---------0------------------
G---------------2---2----0---0----0---0-----0---0----------------
D----------------------------------------------------------------
A-------------0--------3-------------------2---------------------
E-------------------------------3--------------------------------

Se repite durante todo el verso.

Verso:

Un dia te vi no se cual fue el sentimiento,
pero senti q me elevaba y ahora q te fuiste ya no me siento igual.
Y senti q me perdi, todo paso tan rapido.
Deje todo atras, para no volver jamas.

[ Tab from: http://www.guitartabs.cc/tabs/s/sublevacion/sentimiento_tab.html ]
Coro:
Am               C            G             E
El tiempo paso y te perdi con todo lo demas,
Am               C   G           E 
no hay camino atras, solo para adelante.
Am     C          G          E  Am C  G E
Ojala alguna vez, nos veamos de nuevo.

Verso 2:

Verso:
E----------------------------------------------------------------
B-----------------0h1p0------0h1p0--------0h3p0---------0h1p0----
G---------------2------2----0------0----0------0-------0------0--
D----------------------------------------------------------------
A-------------0-----------3--------------------------2-----------
E-------------------------------------3--------------------------

Verso 2:
Ayer te vi, en las antiguas fotos,
y recorde, aquellos momentos tan preciosos.
Y solo llore, en la obscuridad de la noche.

Coro(x2)

h - hammer on 
      p - pull off 
      b - bend string up
      r - release bend
      / - slide up
       - slide down
      v - vibrato (sometimes written as ~)
      t - right hand tap
      x - play 'note' with heavy damping


Submitted by phoenix17@msn.com
Comments