Subjectt 117 - Back In Time Chords & Tabs

 

Back In Time Chords & Tabs

Subjectt 117 Chords & Tabs

Version: 1 Type: Bass Tab 1 rating
1 star 2 stars 3 stars 4 stars 5 stars
comments

Back In Time Bass Tab

   
tuning drop D flat

intro/verse
g---------------------------------
d---7--7-----------------------7--   X8
a-55-55-55--4--4--4--5--5--------4
d---------44-44-44-55-55-555555---

pre chorus
g----------------------
d-------------------7--   X2
a-555-----------------4
d------444--555-5-55---
[ Tab from: http://www.guitartabs.cc/tabs/s/subjectt_117/back_in_time_btab.html ]
Verse X4
pre chorus

chorus:
g-----------------
d-----------------  x4
a-4444----2222----
d-----7777----4444

bridge
g-----------------------------------------
d-----------------------------------------
a-----------------------------------------
d-0000000000000000555444333222555444333222

pre chorus
chours



Comments