Subhumans - Society Chords & Tabs

 

Society Chords & Tabs

Subhumans Chords & Tabs

Version: 1 Type: Bass Tab 0 ratings
1 star 2 stars 3 stars 4 stars 5 stars
comments

Society Bass Tab

   
                           Subhumans - Society

Another Subhumans one by ear. It's got a lotta treble and on lower strings.

Intro/Basically Main riff for rest of the song
G|------------------------4-4------|
D|-7-7-7-7-5-5-5-5-2-4-5-7-5-5-----|
A|---------------------------------|
E|---------------------------------|
[ Tab from: http://www.guitartabs.cc/tabs/s/subhumans/society_btab.html ]
Variations
G|-----------------------------------|
D|-7-7-7-7-5-5-5-5-12-11-9-7-9-7-6-4-|
A|-----------------------------------|
E|-----------------------------------|

Chorus 
G|---------------|
D|---4-5-7-------|
A|-7-------7-7-7-| x2
E|---------------|

G|---------------|
D|---------------|
A|-7-------------| x1
E|-0-------------|
Comments