Subhumans - No Chords & Tabs

 

No Chords & Tabs

Subhumans Chords & Tabs

Version: 3 Type: Bass Tab

No Bass Tab

NO by Subhumans. Album : Day The Country Died (DICK 1981)
No, I don't believe in police.
:
# verse # X12
G------------------------------------|
D---2--------------------------------|
A-------2---0---------------0---2----|
E---------------3---0---3------------|
:
# chorus # X3 !play all notes 4 times!
G--------------------------------------|
D--------------------------------------|
A----7---9---10---9---7---5---4---5----|
E--------------------------------------|
:
Then play verseX20, chorusX6
:
# end # *=playX3
G---------------------------------------------|
D----*---*---*----*---*---*---*---*-----------|
A----7---9---10---9---7---5---4---5---7/19----|
E---------------------------------------------|
:
Police brutality isn't a dream.
jackhynes :AT: gmail :DOT: com 31.03.04
http://www.geocities.com/jackstabs
[ Tab from: http://www.guitartabs.cc/tabs/s/subhumans/no_btab_ver_3.html ]