Subhumans - Mickey Mouse Is Dead Chords & Tabs

 

Mickey Mouse Is Dead Chords & Tabs

Subhumans Chords & Tabs

Version: 1 Type: Tab 0 ratings
1 star 2 stars 3 stars 4 stars 5 stars
comments

Mickey Mouse Is Dead Tab

   
LISTEN  TO THE SONG AS FAR AS THE INTRO SO YOU KNOW HOW MANY TIMES
TO SLIDE AND WHEN

INTRO
e------------
B------------
G------------
D-9-9-9-9/10-
A-9-9-9-9/10-
E-7-7-7-7/8--

PRE VERSE
e------------
B------------
G---6--------
D-7767-9999--
A-7747-9999--
E-55-5-7777--

VERSE PART 1
e------------
B------------
G-------6----
D-9999-7767--
A-9999-5547--
E-7777-55-5--
[ Tab from: http://www.guitartabs.cc/tabs/s/subhumans/mickey_mouse_is_dead_tab.html ]
VERSE PART 2
e-----------------------------------------
B-----------------------------------------
G 7777/8888\7777/8888\7777/8888\7777/8888-
D 7777/8888\7777/8888\7777/8888\7777/8888-
A 5555/6666\5555/6666\5555/6666\5555/6666-
E-----------------------------------------

BRIDGE
e------------------
b------------------
g------------------
d-9-9-9-9--9999-99-
a-9-9-9-9--9999-99-
e-7-7-7-7--7777-77-

THERE IT IS IT WAS LONG AN BORING TO WRITE BUT IT WAS WORTH IT AS FAR
AS THE SOLO I HAVE NO IDEA I HAVE BEEN TRYING TO TAB IT BUT CANT SO I
WASNT JUST GOING TO PUT WHATEVER IF YU KNOW HOW TO PLAY THAT WIERD SOLO
TELL ME AT SUBPISTOLSPUNK@AOL.COM
Comments