Subhumans - Germ Chords & Tabs

 

Germ Chords & Tabs

Subhumans Chords & Tabs

Version: 1 Type: Bass Tab 0 ratings
1 star 2 stars 3 stars 4 stars 5 stars
comments

Germ Bass Tab

Germ, by SubHumAns
Tabbed for bass by Jake Strange (scumfuc).
Email:  jakestrange@chaosmagic.com
[ Tab from: http://www.guitartabs.cc/tabs/s/subhumans/germ_btab.html ]
Main Riff/verses:
G|--------------------------------------|
D|------7-7-----7------7--------7-------|
A|--------------------------------------|
E|--5-5-------5----5-5----5---5---------|

Chorus:
G|---------------------------------------------------------|
D|--------------------------------7-7-----7------7------7--|
A|---------------------------------------------------------|
E|--15\----\----(3)/------/---5-5-------5----5-5----5-5----|
Comments