Subhumans - Big Brother Chords & Tabs

 

Big Brother Chords & Tabs

Subhumans Chords & Tabs

Version: 1 Type: Tab 0 ratings
1 star 2 stars 3 stars 4 stars 5 stars
comments

Big Brother Tab

-------------------------------------------------------------------------------
			Big Brother - [SUB] [HUM] [ANS]
-------------------------------------------------------------------------------

By: Blank Sinatra(blanksinatra@netzero.com)(http://dine.at/thedulls)

First and Second Verses

  Here we are in a new age Wishing we were dead
e|------------------------55555-XXXXXXXXXXXXXXXXXXXX--55555-----------|
B|------------------------55555-XXXXXXXXXXXXXXXXXXXX--55555-----------|
G|------------------------66666-XXXXXXXXXXXXXXXXXXXX--66666-----------|
D|------------------------77777-XXXXXXXXXXXXXXXXXXXX--77777-----------|
A|------------------------77777-XXXXXXXXXXXXXXXXXXXX--77777-----------|
E|------------------------55555-XXXXXXXXXXXXXXXXXXXX--55555-----------|

Pre-Chorus and Chorus
[ Tab from: http://www.guitartabs.cc/tabs/s/subhumans/big_brother_tab.html ]
  Somebody told me "Big Brother's watching you"
e|55-------44-------333-----------------------------------------------|
B|55-------44-------333-----------------------------------------------|
G|66-------55-------444-----------------------------------------------|
D|77-------66-------555-----------------------------------------------|
A|77-------66-------555-----------------------------------------------|
E|55-------55-------333-----------------------------------------------|

Pre-Verses One and Two and Third Verse

e|66667777--55555-----------------------------------------------------|
B|66667777--55555-----------------------------------------------------|
G|77778888--66666-----------------------------------------------------|
D|88889999--77777-----------------------------------------------------|
A|88889999--77777-----------------------------------------------------|
E|66667777--55555-----------------------------------------------------|

Pre-Verse Three

e|66667777               66667777                   ------------------|
B|66667777               66667777                   ------------------|
G|77778888 [Guitar Solo] 77778888 [Bass Solo, etc.] ------------------|
D|88889999               88889999                   ------------------|
A|88889999               88889999                   ------------------|
E|66667777               66667777                   ------------------|


I don't know how to play any of the solos so fake 'em.  I use lots of
vibrato effect on the guitar solo to get that scary "East Bay Ray" sound.

I want to let everyone know that there are punk rockers way down here in
the huge metropolis of Mobile, AL.
__________________________________________________________________________
Added to UG By Mikhailo
Comments