Styx - The Best Of Times Chords & Tabs

 

The Best Of Times Chords & Tabs

Styx Chords & Tabs

Version: 1 Type: Tab 0 ratings
1 star 2 stars 3 stars 4 stars 5 stars
comments

The Best Of Times Tab

   
##################################################################################
# This file is the author's own work and represents their interpretation of the  #
# song. You may only use this file for private study, scholarship, or research.  #
##################################################################################

The Best Of Times
Styx
From the Album-"Paradise Theater"
1981
Written by Dennis DeYoung
Tabbed by Ray Scheidler
stingray12002@yahoo.com

Chords:

  Am7    D    D7     G    G/F    C    Em
E--------2-----2-----3-----3------------
B--1-----3-----1-----------------1-----2
G--------2-----2-----------------------2
D--2-----------------------3-----2------
A--------------------2-----------3------
E--------------------3------------------



 Fmaj7    E7    F    Am  C/G D7sus G/C
E---------------1--------------3----3---
B--1------------1----1----1----1--------
G--2-------1----2----2---------2--------
D--3------------3----2----2-------------
A----------3--------------3---------3---
E-------------------------3-------------


  C/E  Dm7 Dm7/G G7    E   Em7  F/C
E-------1----1----1--------------1------
B--1----1----1--------------3----1------
G-------2----2---------1---------2------
D--3--------------2----2----2----3------
A----------------------2----2----3------
E------------3----3---------------------


Am7                             D  D7
Tonight's the night we'll make history

 G    G/F     C Em
Honey you and I

Fmaj7                         E7
'Cause I'll take any risk to tie

                   F
Back the hands of time

[ Tab from: http://www.guitartabs.cc/tabs/s/styx/the_best_of_times_tab.html ]
E--------------------------1-------------------
B----------------------1-----------------------
G------------------2---------------------------
D--------------3-------------------------------
A------0---3-----------------------------------
E--1-------------------------------------------

      G                   Am 
And stay with you here tonight



  Am           G/A      Am           G/A
E--0---0---------------------------------------
B--1---1---1---(3)-------1---1-----------------
G----------2---(4)-------2---2-------(4)-------
D--------------------------------2---(5)-------
A----------------------------------------------
E----------------------------------------------


  Am           G/A      Am           F   G
E--0---0-----------------------------1---3-----
B--1---1---1---(3)-------1---1-------1---------
G----------2---(4)-------2---2-------2---------
D--------------------------------2---3---------
A----------------------------------------2-----
E----------------------------------------3-----


Am           G/A      Am           G/A
E--0---0---------------------------------------
B--1---1---1---(3)-------1---1-----------------
G----------2---(4)-------2---2-------(4)-------
D--------------------------------2---(5)-------
A----------------------------------------------
E----------------------------------------------


  Am           G/A      Am           F   G
E--0---0-----------------------------1---3-----
B--1---1---1---(3)-------1---1-------1---------
G----------2---(4)-------2---2-------2---------
D--------------------------------2---3---------
A----------------------------------------2-----
E----------------------------------------3-----


C  G/C  C  F/C
The best of times

C    G/C C  G/C Am       G
Are when I'm alone with you

 C   G/C   C    F/C
Some rain some shine

 C    G/C    C G/C Am        G
We'll make this a world for two

Repeat ad nauseum
Comments