Styx - Suite Madame Blue Chords & Tabs

 

Suite Madame Blue Chords & Tabs

Styx Chords & Tabs

Version: 1 Type: Tab 0 ratings
1 star 2 stars 3 stars 4 stars 5 stars
comments

Suite Madame Blue Tab

   
Thanks to Dan Baderman for providing the basis for this tab. ben at 98.net

Prelude 12 (Suite Madame Blue) (STYX)

  <-------harmonics--------|
E-|---7-------|---7---12---|
B-|------7----|---------7--|
G-|-------7---|------7-----|
D-|-----5-----|------------|
A-|-----------|------------|
E-|-7---------|-7----------|


E-|-2--2-0-----5---|-2--2-0-----3---|---2-----0---|---2---0----|
B-|-0------3---3---|-0------3---2---|-------------|---------3--|
G-|-0----------2---|-0----------0---|-------0-----|------------|
D-|-0----------0---|-0----------2---|-----4-------|-----4------|
A-|-2--------------|-2----------0---|-2-----------|-2----------|
E-|-3--------------|-3--------------|-------------|------------|
    1  2 e &   3 4 | 1  2 e &   3 4 | 1 & 2 & 3 4 | 1 & 2 & 3 4
    ss         ss    ss         ss

E-|-2--2-0-----5---|-2--2-0-----3---|---2-----0---|---2---0----|
B-|-0------3---3---|-0------3---2---|-------------|---------3--|
G-|-0----------2---|-0----------0---|-------0-----|------------|
D-|-0----------0---|-0----------2---|-----4-------|-----4------|
A-|-2--------------|-2----------0---|-2-----------|-2----------|
E-|-3--------------|-3--------------|-------------|------------|
    1  2 e &   3 4 | 1  2 e &   3 4 | 1 & 2 & 3 4 | 1 & 2 & 3 4
    ss         ss    ss         ss

[ Tab from: http://www.guitartabs.cc/tabs/s/styx/suite_madame_blue_tab.html ]
E-| -----0----|-----0----|-----0----|-----0----|
B-| ----0-0---|----0-0---|----0-0---|----0-0---|
G-| ---5---5--|---5---5--|---5---5--|---5---5--|
D-| --2-----2-|--3-----3-|--4-----4-|--3-----3-|
A-| -0--------|-0--------|-0--------|-0--------|
E-| ----------|----------|----------|----------|

  <-----harmonics----------|
E-|----12--7--|----7--5----|
B-|----12--7--|----7--5----|
G-|----12--7--|----7--5----|
D-|-----------|------------|
A-|-----------|------------|
E-|-12--------|-12---------|



E-|-----------0-----|-3p0-------------|-------0-0-------|
B-|-------0h1---1---|-----1-----------|-----3-----3-----|
G-|-----2---------0-|-------0---------|---2---------2---|
D-|---2-------------|---------------2-|-0-------------0-|
A-|-0---------------|---------0-2-3---|-----------------|
E-|-----------------|-----------------|-----------------|
    1 & 2 & 3 & 4 &   1 & 2 & 3 & 4 &   1 & 2 & 3 & 4 &

E-|-2--------|-2------|-2------|
B-|-3--------|-2------|-2------|
G-|-2--------|-4------|-3------|
D-|-0--------|-4------|-4------|
A-|----------|-4------|-4------|
E-|----------|-2------|-2------|
    ^          ^        ^
    1 2 3 4 &  1 2 3 4


Now repeat the next line forever.....

E-|---------2-------|---------0--------|---------0-------|-----------------|
B-|-------3---3-----|-------3---3------|-------3---3-----|-------3-------2-|
G-|-----4-------4---|-----4-------4----|-----4-------4---|-----4-------3---|
D-|---4-------------|---4-----------4--|---4-----------4-|---4-------4-----|
A-|-2-------------2-|-0----------------|-----------------|-----------------|
E-|-----------------|------------------|-4---------------|-3-------2-------|
    1 & 2 & 3 & 4 &   1 & 2 & 3 & 4 &    1 & 2 & 3 & 4 &   1 & 2 & 3 & 4 &
                                                                   (F# bar)

Weird notations:
 ss -> slow strum
 ^  -> down strum
 V  -> up strum
Comments