Styx - Renegade Chords & Tabs

 

Renegade Chords & Tabs

Styx Chords & Tabs

Version: 1 Type: Bass Tab 0 ratings
1 star 2 stars 3 stars 4 stars 5 stars
comments

Renegade Bass Tab

song: renegade
artist: styx
tuning: standard
tabber: chris barry (nirvanaisanorgy)

* = stop note from ringing
\ = slide that note

intro is singing for 16 bars

chorus:X1

G||--------|--------|-------|--------|
D||--------|--------|-------|--------|
A||--------|--------|-------|--------|
E||-3-3-3-3|3-3-3-30|3-3-3-3|3-3-3-31|

G||---------|--------|--------|----------|
D||---------|--------|--------|----5-3---|
A||-5-5-5-54|3-3-3330|--------|-------543|
E||---------|--------|-3-3-3-3|3-3-------|

Verse: x4

G||--------|--------|--------|--------|
D||--------|--------|--------|--------|
A||--------|-------1|3-3-3-30|--------|
E||-3-3-3-3|3-3-3-3-|--------|3-3-3010|

chorus:X1

G||--------|--------|-------|--------|
D||--------|--------|-------|--------|
A||--------|--------|-------|--------|
E||-3-3-3-3|3-3-3-30|3-3-3-3|3-3-3-31|

G||---------|--------|--------|-------|
D||---------|--------|--------|-------|
A||-5-5-5-54|3-3-3330|--------|-------|
E||---------|--------|-3-3-3-3|3-3-3-3|

bridge into solo: x1
[ Tab from: http://www.guitartabs.cc/tabs/s/styx/renegade_btab.html ]
G||--------|--------|-------|--------|
D||--------|--------|-------|--------|
A||--------|--------|-------|--------|
E||-3*-----|--------|-------|-----012|

guitar solo:

G||-----------|
D||----5\-----|
A||-----------|X16
E||-3-----3012|

interlude:

G||-------|--------|-------|-------|
D||-------|--------|-------|-------|
A||-------|------13|-------|-----15|
E||-------|-----3--|-------|----3--|

G||-------|--------|-------|-------|
D||-------|--------|-------|-------|
A||-------|-----135|-------|---3131|
E||-------|--------|-------|-------|

breakdown:

G||-------|-------|-------|-------|
D||-------|-6-bar-|-------|-------|
A||-------|--rest-|-------|-------|
E||3------|-------|-------|----012|

chorus:X1

G||--------|--------|-------|--------|
D||--------|--------|-------|--------|
A||--------|--------|-------|--------|
E||-3-3-3-3|3-3-3-30|3-3-3-3|3-3-3-31|

G||---------|--------|--------|----------|
D||---------|--------|--------|----5-3---|
A||-5-5-5-54|3-3-3330|--------|-------543|
E||---------|--------|-3-3-3-3|3-3-------|

G||--------|--------|--------|--------|
D||--------|--------|--------|--------|
A||--------|--------|--------|--------|
E||33333331|33333331|33333331|33333331|

100% correct enjoy
Comments