Styx - Miss America Chords & Tabs

 

Miss America Chords & Tabs

Styx Chords & Tabs

Version: 4 Type: Tab 0 ratings
1 star 2 stars 3 stars 4 stars 5 stars
comments

Miss America Tab

   
This is my version of Miss America
I haven't completely figured out the solo, but I will post is once I have

Key
h: hammer on
p: pull off

MISS AMERICA
{DISTORTED}
[A]INTRO, VERSE
e-------------------------|--------------------------|
B-------------------------|--------------------------|
G-9p7-9------9h12-9--5-7--|--9p7-9------9h12-9--7-5--|
D------7-10-7--------5-7--|-------7-10-7--------7-5--|
A--------------------3-5--|---------------------5-3--|
E-------------------------|--------------------------|
                                  Repeat Multiple Times 
e-------------------------|-------------------------- |
B-------------------------|-------------------------- |
G-9p7-9------9h12-9--5-7--|--------------------------*|
D------7-10-7--------5-7--|--9--9--9-9--5--7-7-------*|
A--------------------3-5--|--9--9--9-9--5--7-7------- |
E-------------------------|--7--7--7-7-03--5-5------- |

[B]CHORUS
e-----------------|-----------------|----------------|--|
B-----------------|-----------------|----------------|--|
G-----------------|-----------------|----------------|--|
D-9--9-9--10-9-7--|-9--9-9--9--7-5--|-9--9-9-10-9-7-5|-7|
A-9--9-9--10-9-7--|-9--9-9--9--7-5--|-9--9-9-10-9-7-5|-7|
E-7--7-7--8--7-5--|-7--7-7--7--5-3--|-7--7-7-8--7-5-3|-5|

[C]UNDER 1st SYNTH SOLO
e-----------------|-----------------|-----------------|
B-----------------|-----------------|-----------------|
G-----------------|-----------------|-----------------|
D-5--5--5--5--5-5-|-7--7--7--7--7-7-|-5--3--5--3--5-3-|
A-5--5--5--5--5-5-|-7--7--7--7--7-7-|-5--3--5--3--5-3-|
E-3--3--3--3--3-3-|-5--5--5--5--5-5-|-3--1--3--1--3-1-|

e-----------------|-----------------|-----------------|
B-----------------|-----------------|-----------------|
G-----------------|-----------------|-----------------|
D-7--5--7--5--7-5-|-9--7--7--7--9-7-|-10--------------|
A-7--5--7--5--7-5-|-9--7--7--7--9-7-|-10--------------|
E-5--3--5--3--5-3-|-7--5--7--5--7-5-|-8---------------|
[ Tab from: http://www.guitartabs.cc/tabs/s/styx/miss_america_tab_ver_4.html ]
[D]UNDER GUITAR SOLO
e-------------------------|---------------------------|
B-------------------------|---------------------------|
G-9p7-9------9h12-9--5-7--|--9h12-9------9h12-9--7-5--|
D------7-10-7--------5-7--|--------7-10-7--------7-5--|
A--------------------3-5--|----------------------5-3--|
E-------------------------|---------------------------|
                                  
e-------------------------|---------------------------|
B-------------------------|---------------------------|
G-9p7-9------9h12-9--5-7--|---------------------------|
D------7-10-7--------5-7--|--9--9--9-9--5--7-7--------|
A--------------------3-5--|--9--9--9-9--5--7-7--------|
E-------------------------|--7--7--7-7-03--5-5--------|

e-------------------------|--------------------------|
B-------------------------|--------------------------|
G-9p7-9------9h12-9--5-77-|--9p7-9------9h12-9--7-5--|
D------7-10-7--------5-77-|-------7-10-7--------7-5--|
A--------------------3-55-|---------------------5-3--|
E-------------------------|--------------------------|
                                  
e--------------------------|---------------------------|
B--------------------------|---------------------------|
G-9h12-9------9h12-9--5-7--|---------------------------|
D-------7-10-7--------5-7--|--9--9--9-9--5--7-7--------|
A---------------------3-5--|--9--9--9-9--5--7-7--------|
E--------------------------|--7--7--7-7-03--5-5--------|


[E] UNDER 2nd SYNTH SOLO
e-----------------|-----------------|
B-----------------|-----------------|
G-----------------|-----------------|
D-5--5--5--5--5-5-|-7--7--7--7--7-7-|
A-5--5--5--5--5-5-|-7--7--7--7--7-7-|
E-3--3--3--3--3-3-|-5--5--5--5--5-5-|

[F]ENDING
e-------------------------|--------------------------|
B-------------------------|--------------------------|
G-9p7-9------9h12-9--5-7--|--9p7-9------9h12-9--7-5--|
D------7-10-7--------5-7--|-------7-10-7--------7-5--|
A--------------------3-5--|---------------------5-3--|
E-------------------------|--------------------------|

e-------------------------|-------------------------- |
B-------------------------|-------------------------- |
G-9p7-9------9h12-9--5-7--|--9p7-9------9h12-9--7-5--*|
D------7-10-7--------5-7--|-------7-10-7--------7-5--*|
A--------------------3-5--|---------------------5-3-- |
E-------------------------|-------------------------- |
                                                Fade Out...                  
ORDER:
Pre-Intro   00:00-00:52
Intro       00:52-01:06 [A]
Verse       01:06-01:34 [A]
Chorus      01:34-01:47 [B]
Verse       01:47-02:15 [A]
Chorus      02:15-02:28 [B]
Synth Solo  02:28-02:49 [C]
Guitar Solo 02:49-03:16 [D]
Chorus      03:16-03:29 [B]
Verse       03:29-03:57 [A]
Chorus      03:57-04:11 [B]
Synth Solo  04:11-04:17 [E]
Ending      04:17-05:02 [F]

I hope you like this version to Styx's "Miss America"
If you have questions or comments, E-mail me at yakityb@aol.com
Once again, I am still trying to figure out the solo, but I will have it posted as soon as I finish it

Brendan
Comments