Styx - Come Sail Away Chords & Tabs

 

Come Sail Away Chords & Tabs

Styx Chords & Tabs

Version: 1 Type: Tab 0 ratings
1 star 2 stars 3 stars 4 stars 5 stars
comments

Come Sail Away Tab

   
Styx
Come sail away


  Gtr I
|------22---20--------|-------22----20----------|
|-17-------------17---|-18----------------18----|
|---------------------|-------------------------|
|---------------------|-------------------------|
|---------------------|-------------------------|
|---------------------|-------------------------|
|
| Gtr II
|---------------------|-------------------------|
|----8----8----8----8-|----10----10----10----10-|
|-------9----9--------|-------10----10----------|
|-10-------------10---|-12----------------12----|
|---------------------|-------------------------|
|---------------------|-------------------------|


  Em7                       Dm7
|-------22----20----------|-------22----20----20p19p17h19--|
|-20----------------20----|-18-----------------------------|
|-------------------------|--------------------------------|
|-------------------------|--------------------------------|
|-------------------------|--------------------------------|
|-------------------------|--------------------------------|
|
|-------------------------|--------------------------------|
|----12----12----12----12-|----10----10----10-------10-----|
|-------12----12----------|-------10----10-----------------|
|-14----------------14----|-12----------------12-----------|
|-------------------------|--------------------------------|
|-------------------------|--------------------------------|


                                            To Coda
  C                     G
|-20------------------|-----------------------------|
|--------20-----------|-----------------------------|
|-----------17---17---|-16tr17-------(16)-16----16--|
|---------------------|----------------------19-----|
|---------------------|-----------------------------|
|---------------------|-----------------------------|
|
|---------------------|-----------------------------|
|----8----8---------8-|-----------------------------|
|------9-------9------|--------7---7-------7-----7--|
|-10--------10---10---|----------9------------9-----|
|---------------------|-10------------10------------|
|---------------------|-----------------------------|


   Verse
    C                      Em/B
||-------20--------------|------19---15----------|
||o-----------20---17----|----------------17-----|
||--17----------------17-|-16----------------16--|
||-----------------------|-----------------------|
||o----------------------|-----------------------|
||-----------------------|-----------------------|
|
||-----------------------|-----------------------|
||o----8----8----8-----8-|----8----8----8-----8--|
||--------9---------9----|-------9---------9-----|
||--10--------10---------|--9---------9----------|
||o----------------------|-----------------------|
||-----------------------|-----------------------|


  Am                                   G5
|---------------------|--------17-----------|
|-17------------------|-----------17---15---|
|--------17-17-----14-|-14------------------|
|---------------------|---------------------|
|---------------------|---------------------|
|---------------------|---------------------|
|
|---------------------|---------------------|
|----5----5----5----5-|----5----5----5------|
|------5---------5----|-------------------7-|
|--7---------7--------|--7---7-----7----5---|
|---------------------|---------------------|
|---------------------|---------------------|


  F
|--------------------|---13-12--------------|
|-13-----------------|---------13-----------|
|--------14-14-------|------------14--------|
|--------------------|-----------------15---|
|--------------------|----------------------|
|--------------------|----------------------|
|
|--------------------|----------------------|
|--------------------|----------------------|
|----5----5----5---5-|----5-----5----5----5-|
|------7-----7---7---|-------7--------------|
|--8-----------------|-8-----------8----8---|
|--------------------|----------------------|


  G
|---------------------|------15-15--------------||
|--------15-15--------|-(15)---------15--------o||
|-12------------------|-------------------------||
|---------------------|-------------------------||
|---------------------|------------------------o||
|---------------------|-------------------------||
|
|---------------------|-------------------------||
|---------------------|------------------------o||
|----7----7----7----7-|-------7----7----7----7--||
|------9-----9--------|---9-----------9---------||
|-10-------------10---|---------10--------10---o||
|---------------------|-------------------------||


  Am
|--------------------17-|-17--------------------|
|---------13-13---------|---------17-17---13----|
|-14--------------------|--------------------14-|
|-----------------------|-----------------------|
|-----------------------|-----------------------|
|-----------------------|-----------------------|
|
|-----------------------|-----------------------|
|-----------------------|-----------------------|
|----9-----9----9-----9-|----9-----9----9-----9-|
|------10---------10----|-10---10---------------|
|-12---------12---------|------------12---12----|
|-----------------------|-----------------------|


  G
|--------------------|---------22-20-----------|
|-15-----------------|------20-------20--------|
|--------12-12-------|-(12)-----------------12-|
|--------------------|-------------------------|
|--------------------|-------------------------|
|--------------------|-------------------------|
|
|--------------------|-------------------------|
|--------------------|-------------------------|
|----7----7----7---7-|-------7-----7----7----7-|
|------9---------9---|----------9---------9----|
|-10--------10-------|--10-----------10--------|
|--------------------|-------------------------|


  Am
|----------------------|----20-17--------------|
|---------13-13--------|----------17-----------|
|-14-------------------|-------------17---14---|
|----------------------|-----------------------|
|----------------------|-----------------------|
|----------------------|-----------------------|
|
|----------------------|-----------------------|
|----------------------|-----------------------|
|----9-----9----9----9-|-----9-----9----9----9-|
|------10----10--------|-10----10--------------|
|-12--------------12---|-------------12---12---|
|----------------------|-----------------------|


  G
|------------------15-|-15----------------|
|-15------------------|----------15--15---|
|--------12-12--------|-------------------|
|---------------------|-------------------|
|---------------------|-------------------|
|---------------------|-------------------|
|
|---------------------|-------------------|
|---------------------|-------------------|
|----7----7----7----7-|----7---7--------7-|
|------9---------9----|------9--------9---|
|-10--------10--------|-10-------10-------|
|---------------------|-------------------|


  C                      Em/B
|------20--------------|------19---15---------|
|-----------20---17----|----------------17----|
|-17----------------17-|-16----------------16-|
|----------------------|----------------------|
|----------------------|----------------------|
|----------------------|----------------------|
|
|----------------------|----------------------|
|----8----8----8-----8-|----8----8----8-----8-|
|-------9---------9----|-------9---------9----|
|-10--------10---------|--9---------9---------|
|----------------------|----------------------|
|----------------------|----------------------|


  Am                                   G5
|---------------------|--------17-----------|
|-17------------------|-----------17---15---|
|--------17-17-----14-|-14------------------|
|---------------------|---------------------|
|---------------------|---------------------|
|---------------------|---------------------|
|
|---------------------|---------------------|
|----5----5----5----5-|----5----5----5------|
|------5---------5----|-------------------7-|
|--7---------7--------|--7---7-----7----5---|
|---------------------|---------------------|
|---------------------|---------------------|


                               D.S. al Coda
  F                    G
|--------15-15-------|-15--------------------||
|-13-----------------|--------15-15----------||
|--------------------|-----------------------||
|--------------------|-----------------------||
|--------------------|-----------------------||
|--------------------|-----------------------||
|
|--------------------|-----------------------||
|--------------------|-----------------------||
|----5----5----5---5-|----7----7----7----7---||
|------7-----7-------|------9----------------||
|--8-------------8---|-10--------10---10-----||
|--------------------|-----------------------||


   Verse
    &
    C                     Em/B
||-------------8--------|---------7-------|
||o------8-------8------|-----8-----8-----|
||-----9-----------9----|---9---------9---|
||--10-----10--------10-|-9-----9-------9-|
||o-----------10--------|---------7-------|
||---8------------------|-7---------------|


  Am                              G5/D
|---------5-------|--------------------|
|-----5-----5-----|-----5---------8----|
|---5---------5---|---5-------------7--|
|-7-----7-------7-|-------7-(7)-7-0----|
|---------7-------|----------7---------|
|-5---------------|-5------------------|


  F                                  G
|----------------|---------1-------|---------3-------|---------3--------||
|---1---1-1--1---|-----1-------1---|-------3---3-----|-----3-----3-----o||
|-----2--------2-|---2---2---2---2-|---4---------4---|---4---4-----4----||
|-3-------3------|-3-------3-------|-5---5---------5-|-5-------------5--||
|----------------|-----------------|---------5-------|---------5-------o||
|-1--------------|-1---------------|-3---------------|-3----------------||


  Am                                 G
|---------5-------|----------------|--------------|------------------|
|-----5-------5---|-------5-5------|--------------|---3-3------------|
|---5-----------5-|-5----------5---|-4---4----4---|-------------4----|
|-7-----7---7-----|---7-7--------7-|-------5----5-|-5-----5-(5)---5--|
|---------7-------|---------7------|-------5------|----------5-------|
|-5---------------|-5--------------|-3------------|-3-------------3--|


  Am                                  G
|---------5-------|-----------------|-----------------|---------3-------|
|-----5-----5-----|-----5---5-------|-----------3---3-|-3-----3---3-----|
|---5---------5---|-------------5---|-----------------|-------------4---|
|-7-----7-------7-|---7---7---7---7-|---5-5---5---5---|---5-5---------5-|
|---------7-------|-7-------7-------|-5-----5-5-------|---------5-------|
|-5---------------|-5---------------|-3---------------|-3---------------|


  C                     Em/B              Am                              G5/D
|------------8--------|---------7-------|---------5-------|-------------------|
|------8-------8------|-----8-----8-----|-----5-----5-----|-----5---------8---|
|----9-----------9----|---9---------9---|---5---------5---|---5-------------7-|
|-10-----10--------10-|-9-----9-------9-|-7-----7-------7-|-------7-(7)-7-0---|
|-----------10--------|---------7-------|---------7-------|----------7--------|
|--8------------------|-7---------------|-5---------------|-5-----------------|


                                       Interlude
  F5                G5                  C
                                        Gtr III
                                                PM----|
|-----------------|------------------||-----------------|
|-1---------------|------------------||--8--------------|
|-----------------|------------------||--9--------------|
|-3---3-3-3-3-3-3-|-5-5-5-5-5-5--5-5-||-10--------------|
|-----------------|------------------||-10--------------|
|-1---1-1-1-1-1-1-|-3-3-3-3-3-3--3-3-||--8--8-8-8-8-8-8-|
|
| Gtr IV                                Gtr IV
| PM--------------------------|
|-----------------|------------------||-----------------|
|-----------------|------------------||-----------------|
|-----------------|------------------||-----------------|
|-----------------|------------------||-10--------------|
|-----------------|------------------||-10--------------|
|-1-1-1-1-1-1-1-1-|-3-3-3-3-3-3-/8-8-||--8--------------|


  F/C                G       G/C
                                     PM-------|
|--------------------------|----------------------|
|-10------10--10--x--------|----------------------|
|-10------10--10--x--12-12-|-12-------------------|
|-10------10--10--x--12-12-|-12-------------------|
|--8---8---8---8--x--10-10-|-10-------------------|
|--8---8-------8--x--------|--8--8-8-8-8---8----8-|
|
|----------8---------------|----------------------|
|-10------10---------12-12-|-12----------(12)-----|
|-10------10--10-12--12-12-|-12----------(12)-\10-|
|-10------10--10-12--12-12-|-12----------(12)-\10-|
|--8-------8---8-10--10-10-|-10----------(10)-----|
|--8--------------------|----------------------|


  F/C                    C
|-------------------------------|
|-10-------10-------------------|
|-10-------10--10---------9--9--|
|-10-------10--10--------10-10--|
|--8-----8---8--------10-10--|
|--8--------8-------------8--8--|
|
|----x----------8--8--8---------|
|-10----x--10---x--x-10---------|
|-10----x--10--10-10-10---9--9--|
|-10----x--10--10-10-10--10-10--|
|--8----x---8---8--8-10--10-10--|
|-------------------------8--8--|


  C                 F/C               G
          PM----|
|-----------------|-------------------------|
|--8--------------|-10-------10--10-x-------|
|--9--------------|-10-------10--10-x-12-12-|
|-10--------------|-10-------10--10-x-12-12-|
|-10--------------|--8----8---8---8-x-10-10-|
|--8--8-8-8-8-8-8-|--8----8-------8-x-------|
|
|--8--------------|----8--------------------|
|--8--------------|-10-------10--10---12-12-|
|--9--------------|-10-------10--10---12-12-|
|-10--------------|-10----x--10--10---12-12-|
|-10--------------|--8-----8---8---10-10-|
|--8--------------|-----------8-------------|


  G/C                    F/C               C
          PM-------|
|----------------------|-------------------------||
|----------------------|-10-------10-------------||
|-12-------------------|-10-------10--10----9--9-||
|-12-------------------|-10-------10--10---10-10-||
|-10-------------------|--8-----8---8---10-10-||
|--8--8-8-8-8---8----8-|--8--------8--------8--8-||
|
|----------------------|--------------------8--8-||
|-12----------(12)-----|-10-x-----10--10----8--8-||
|-12----------(12)-----|-10-x-----10--10-0--9--9-||
|-12----------(12)-\10-|-10-x--x--10--10---10-10-||
|-10----------(10)-----|--8-x--x---8---8---10-10-||
|----------------------|--------------------8--8-||


 Pre-Chorus
  C                 F/C               G
          PM----|
|-----------------|-------------------------|
|--8--------------|-10-----10----10-x-------|
|--9--------------|-10-----10----10-x-12-12-|
|-10--------------|-10-----10----10-x-12-12-|
|-10--------------|--8---8--8-----8-x-10-10-|
|--8--8-8-8-8-8-8-|--8---8--------8-x-------|
|
|--8--------------|-------------------10-10-|
|--8--------------|--------10--x-10-x-12-12-|
|--9--------------|-10--10-10--x-10-x-12-12-|
|-10--------------|-10--10-10--x-10-x-12-12-|
|-10--------------|--8---8--8--x--8-x-------|
|--8--------------|-------------------------|


  G/C                    F/C              C
          PM-------|
|----------------------|-------------------------|
|----------------------|-10------10--------------|
|-12-------------------|-10------10--10----9--9--|
|-12-------------------|-10------10--10---10-10--|
|-10-------------------|--8----8---8---10-10--|
|--8--8-8-8-8---8----8-|--8-------8--------8--8--|
|
|                                 PM
|----------------------|-------------------8--8--|
|-12----------(12)-----|-10---x--10--10----8--8--|
|-12----------(12)-----|-10---x--10--10-0--9--9--|
|-12----------(12)-\10-|-10---x--10--10---10-10--|
|-10----------(10)-----|--8-------8---8---10-10--|
|----------------------|-------------------8--8--|


  C                 F/C             G
          PM----|
|-----------------|-----------------------|
|--8--------------|-10-----10--10-x-------|
|--9--------------|-10-----10--10-x-12-12-|
|-10--------------|-10-----10--10-x-12-12-|
|-10--------------|--8---8--8---8-x-10-10-|
|--8--8-8-8-8-8-8-|--8---8------8-x-------|
|
|--8--------------|---------8-------------|
|--8--------------|-10-----10--10---12-12-|
|--9--------------|-10-----10--10---12-12-|
|-10--------------|-10--10-10--10---12-12-|
|-10--------------|--8--------------------|
|--8--------------|--8--------------------|


  G/C                    F/C             C
          PM-------|
|----------------------|-----------------------|
|----------------------|-10------10------------|
|-12-------------------|-10------10--10---9--9-|
|-12-------------------|-10------10--10--10-10-|
|-10-------------------|--8----8---8--10-10-|
|--8--8-8-8-8---8----8-|--8-------8-------8--8-|
|
|                                         PM
|----------------------|-----------------------|
|-12----------(12)-----|-10------10--10--------|
|-12----------(12)-\10-|-10------10--10--------|
|-12----------(12)-\10-|-10------10--10--------|
|-10----------(10)--\8-|--8-------8---8--10----|
|----------------------|---------------8----|


 Chorus
  C              F/C
|--8-----------8----|------------------|
|--8--------8--8-10-|---10----10-------|
|--9--x-----9--x-10-|---10----10----12-|
|-10--x----10--x-10-|---10----10--x----|
|-10--x-10-10--x--8-|----8--8--8--x----|
|--8-----8--8-------|-------8----------|
|
|-------------------|------------------|
|----------------10-|-x-10-------------|
|--9--------9--x-10-|-x-10----10--x--x-|
|-10-------10--x-10-|-x-10----10--x--x-|
|-10----10-10--x--8-|-x--8--8--8--x--x-|
|--8-----8--8--x----|-------8----------|


  G/C              F/C
|---------------------|------------------8--|
|------------------10-|------------10----8--|
|-12----12-12----x-10-|--10--10-10-10----9--|
|-12--x-12-12----x-10-|--10--10-10-10-------|
|-10--x-10-10----x--8-|---8---8--8--8-------|
|--8--x--8--8---------|----------------x----|
|
|---------------------|---------------------|
|---------------------|--10--------10--x-x--|
|-12--x------------10-|--10--------10--x-x--|
|-12--x----12-12-x-10-|--10--------10--x-x--|
|-10--x-10-10-10-x--8-|---8---------8--x-x--|
|--8--x--8--8--8------|-------8-------------|


  C              F/C              G      G/C              F/C         C
|--8-----------8----|------------------|---------------------|-----------15--|
|--8--------8--8-10-|---10----10-------|------------------10-|--------17-----|
|--9--x-----9--x-10-|---10----10----12-|-12----12-12----x-10-|---------------|
|-10--x----10--x-10-|---10----10--x----|-12--x-12-12----x-10-|---------------|
|-10--x-10-10--x--8-|----8--8--8--x----|-10--x-10-10----x--8-|---------------|
|--8-----8--8-------|-------8----------|--8--x--8--8---------|---------------|
|
|-------------------|------------------|---------------------|-----------12--|
|----------------10-|-x-10-------------|---------------------|--------13-----|
|--9--------9--x-10-|-x-10----10--x--x-|-12--x------------10-|---------------|
|-10-------10--x-10-|-x-10----10--x--x-|-12--x----12-12-x-10-|---------------|
|-10----10-10--x--8-|-x--8--8--8--x--x-|-10--x-10-10-10-x--8-|---------------|
|--8-----8--8--x----|-------8----------|--8--x--8--8--8------|---------------|


                                      F/C
|-20p15----15-20p15----15-20p15----15-20p15-----17-|
|-------17----------17----------17----------/18----|
|--------------------------------------------------|
|--------------------------------------------------|
|--------------------------------------------------|
|--------------------------------------------------|
|
|-15p12----12-15p12----12-15p12----12-15p12-----13-|
|-------13----------13----------13-----------13----|
|--------------------------------------------------|
|--------------------------------------------------|
|--------------------------------------------------|
|--------------------------------------------------|


                                                    G/C
|-20p17----17-20p17----17-20p17----17-20p17----19-|-22p19----19-22p19----19-22p19----19-22p19----19-|
|-------18----------18----------18----------20----|-------20----------20----------20----------18----|
|-------------------------------------------------|-------------------------------------------------|
|-------------------------------------------------|-------------------------------------------------|
|-------------------------------------------------|-------------------------------------------------|
|-------------------------------------------------|-------------------------------------------------|
|
|-17p13----13-17p13----13-17p13----13-17p13----15-|-19p15----15-19p15----15-19p15----15-19s17----13-|
|-------13----------13----------13----------15----|-------15----------15----------15----------13----|
|-------------------------------------------------|-------------------------------------------------|
|-------------------------------------------------|-------------------------------------------------|
|-------------------------------------------------|-------------------------------------------------|
|-------------------------------------------------|-------------------------------------------------|

[ Tab from: http://www.guitartabs.cc/tabs/s/styx/come_sail_away_tab.html ]
                                      C
|-20p17----17-20p17----17-22p17----17-20p19----15-|
|-------18----------18----------18----------17----|
|-------------------------------------------------|
|-------------------------------------------------|
|-------------------------------------------------|
|-------------------------------------------------|
|
|-17p13----13-17p13----13-17p13----13-17s15----12-|
|-------13----------13----------13----------13----|
|-------------------------------------------------|
|-------------------------------------------------|
|-------------------------------------------------|
|-------------------------------------------------|


                                            F/C
|-20p15----15-20p15----15-20p15----15-20p15-----17-|-20p17----17-20p17----17-20p17----17-20p17-----19-|
|-------17----------17----------17----------/18----|-------18----------18----------18----------/20----|
|--------------------------------------------------|--------------------------------------------------|
|--------------------------------------------------|--------------------------------------------------|
|--------------------------------------------------|--------------------------------------------------|
|--------------------------------------------------|--------------------------------------------------|
|
|-15p12----12-15p12----12-15p12----12-15p12-----13-|-17p13----13-17p13----13-17p13----13-17p13-----15-|
|-------13----------13----------13-----------13----|-------13----------13----------13----------/15----|
|--------------------------------------------------|--------------------------------------------------|
|--------------------------------------------------|--------------------------------------------------|
|--------------------------------------------------|--------------------------------------------------|
|--------------------------------------------------|--------------------------------------------------|


  G/C                                       Ab
|-22p19----19-22p19----19-22p19----19-22p19-20-||
|-------20----------20----------20-------------||
|----------------------------------------------||
|----------------------------------------------||
|----------------------------------------------||
|----------------------------------------------||
|
|-19p15----15-19p15----15-19p15----15-19p15-16-||
|-------15----------15----------15-------------||
|----------------------------------------------||
|----------------------------------------------||
|----------------------------------------------||
|----------------------------------------------||


 Bridge
                Gb/Ab
|-(20)--------|--11-----------------|
|-------------|--11--11--11--13-13--|
|-------------|--11--11--11--13-13--|
|-------------|----------11--13-13--|
|-------------|----------11---------|
|-------------|---------------------|
|
|-(16)--------|---------------------|
|-------------|--11-----------------|
|-------------|--11--11-------------|
|-------------|------11--11---6--6--|
|-------------|----------11---x--x--|
|-------------|---------------4--4--|


  Ab          Gb/Ab                Ab
|-----------|--------------------|----------|
|-13--------|---11---------------|----------|
|-13--------|---11--10--10-------|----------|
|-13--------|---11--11--11--11---|----------|
|-11--------|-------11--11--11---|----------|
|-----------|--------------------|----------|
|
|-----------|--------------------|----------|
|-----------|--------------------|----------|
|-----------|--------3-----------|----------|
|-----------|----4---4---4-------|----------|
|--6--------|----4---4---4-------|----------|
|--4--------|-4----------4---4-4-|-4--------|


            Gb/Ab
|---------|-----------------|------------|
|---------|--------9-/11h14-|-\13--------|
|---------|-----------------|------------|
|---------|-----------------|------------|
|---------|-----------------|------------|
|---------|-----------------|------------|
|
|---------|-----------------|------------|
|---------|-----------------|------------|
|---------|-----------------|------------|
|---------|-----------------|------------|
|---------|-----------------|------------|
|---------|-----------------|------------|


  Gb/Ab     Ab               Gb/Ab
|---------|----------------|---------|
|---------|-16p14s13-------|---------|
|---------|----------------|---------|
|---------|----------------|---------|
|---------|----------------|---------|
|---------|----------------|---------|
|
|---------|----------------|---------|
|---------|----------------|---------|
|---------|----------------|---------|
|---------|----------------|---------|
|---------|----------------|---------|
|---------|----------------|---------|


    Ab                        Gb/Ab
     PM--------------------------------------------|
||--------------------------|--------------------------||
||o-16-14----13-14-13----14-|-16-14----13-14-13----14-o||
||--------13----------13----|-------13----------13-----||
||--------------------------|--------------------------||
||o-------------------------|-------------------------o||
||--------------------------|--------------------------||
|
|    PM--------------------------------------------|
||--------------------------|--------------------------||
||o-------------------------|-------------------------o||
||--------------------------|--------------------------||
||---------6-----6----------|--6-----6-----------6-----||
||o-----6-----6-----6-----6-|-----6-----6-----6-----6-o||
||---4-----------------4----|--------------4-----------||


  Ab                        Gb/Ab
   PM------------------|
|-------------------------|----------------------------------------------------|
|-16-14----13-14-13----14-|----------------------------------------------------|
|-------13----------13----|----------------------------------------------------|
|-------------------------|-------------------------------------------13-------|
|-------------------------|----------------------------------------------------|
|-------------------------|----------------------------------------------------|
|
|  PM------------------|
|-------------------------|-16h18p16h18p16-------------------------------------|
|-------------------------|----------------19p18h19p18h19p18p16----------------|
|-------------------------|-------------------------------------18h20p18p17-18h|
|--------6-----6----------|----------------------------------------------------|
|-----6-----6-----6-----6-|----------------------------------------------------|
|--4-----------------4----|----------------------------------------------------|


  Ab               Gb/Ab                 Ab
|----------------|---------------------|-----------------|
|----------------|---------------------|-----------------|
|-13---------15--|---------------------|-----------------|
|----------------|-16--15-13-(13)--11--|-13------(13)-15-|
|----------------|---------------------|-----------------|
|----------------|---------------------|-----------------|
|
|----------------|---------------------|-----------------|
|----------------|---------------------|-----------------|
|-20-\17---------|---------------------|-----------------|
|----------------|---------------------|-----------------|
|----------------|---------------------|-----------------|
|----------------|---------------------|-----------------|


  Gb/Ab                 Ab                  Gb/Ab
|---------------------|-------------------|-------------------|
|---------------------|-------------------|-13-14-13----------|
|---------------------|-13----(13)-15-13--|----------15--13---|
|-15--16-16-(16)---13-|-------------------|-------------------|
|---------------------|-------------------|-------------------|
|---------------------|-------------------|-------------------|
|
|---------------------|-------------------|-------------------|
|---------------------|-------------------|-------------------|
|---------------------|-------------------|-------------------|
|---------------------|-------------------|-------------------|
|---------------------|-------------------|-------------------|
|---------------------|-------------------|-------------------|


  Ab
|---------------------------------------------------|
|-16------------------------------------------------|
|---------------------------------------------------|
|---------------------------------------------------|
|---------------------------------------------------|
|---------------------------------------------------|
|
|----------------------------16-18p16---------------|
|-------------------16-18-19----------19p18h19p18---|
|----------15-17-18---------------------------------|
|-15h16h18------------------------------------------|
|---------------------------------------------------|
|---------------------------------------------------|


  Gb/Ab
  Gtr IV
|----------------16-18p16-------------------------|
|-19p18h19p18h19----------19-18p16----------16-18-|
|----------------------------------18-17h18-------|
|-------------------------------------------------|
|-------------------------------------------------|
|-------------------------------------------------|


  Ab
|----16-18p16----------------------------16-18p16--|
|-19----------19-18p16----------16-18-19-----------|
|----------------------18-17h18--------------------|
|--------------------------------------------------|
|--------------------------------------------------|
|--------------------------------------------------|


  Gb/Ab
|-------------------------------------------------|
|-19-18p16----------------------------------16-18-|
|----------18-17p15----------------15-17-18-------|
|-------------------18-16-15-16-18----------------|
|-------------------------------------------------|
|-------------------------------------------------|


  Ab
                                                                ~~~~
|----16-18p16----------------------------16-18--|-20--------|-(20)----||
|-19----------19-18p16----------16-18-19--------|-----------|---------||
|----------------------18-17h18-----------------|-----------|---------||
|-----------------------------------------------|-----------|---------||
|-----------------------------------------------|-----------|---------||
|-----------------------------------------------|-----------|---------||


    C                 F/C                G
    Gtr III
            PM----|
||------------------|--------------------------|
||o--8--------------|-10------10--10--x--------|
||---9--------------|-10------10--10--x--12-12-|
||--10--------------|-10------10--10--x--12-12-|
||o-10--------------|--8---8---8---8--x--10-10-|
||---8--8-8-8-8-8-8-|--8---8-------8--x--------|
|
|   Gtr IV
||------------------|----------8---------------|
||o-----------------|-10------10---------12-12-|
||------------------|-10------10--10-12--12-12-|
||--10--------------|-10------10--10-12--12-12-|
||o-10--------------|--8-------8---8-10--10-10-|
||---8--------------|--8--------------------|


  G/C                    F/C                    C
          PM-------|
                                                         5x
|----------------------|---------------------------------||
|----------------------|-10-------10--------------------o||
|-12-------------------|-10-------10--10---------9--9----||
|-12-------------------|-10-------10--10--------10-10----||
|-10-------------------|--8-----8---8--------10-10---o||
|--8--8-8-8-8---8----8-|--8--------8-------------8--8----||
|
|                                                        5x
|----------------------|----x----------8--8--8-----------||
|-12----------(12)-----|-10----x--10---x--x-10----------o||
|-12----------(12)-\10-|-10----x--10--10-10-10---9--9----||
|-12----------(12)-\10-|-10----x--10--10-10-10--10-10----||
|-10----------(10)-----|--8----x---8---8--8-10--10-10---o||
|----------------------|-------------------------8--8----||


 Chorus
  C              F/C
|--8-----------8----|------------------|
|--8--------8--8-10-|---10----10-------|
|--9--x-----9--x-10-|---10----10----12-|
|-10--x----10--x-10-|---10----10--x----|
|-10--x-10-10--x--8-|----8--8--8--x----|
|--8-----8--8-------|-------8----------|
|
|-------------------|------------------|
|----------------10-|-x-10-------------|
|--9--------9--x-10-|-x-10----10--x--x-|
|-10-------10--x-10-|-x-10----10--x--x-|
|-10----10-10--x--8-|-x--8--8--8--x--x-|
|--8-----8--8--x----|-------8----------|


  G/C              F/C                   C
|---------------------|------------------8--|
|------------------10-|------------10----8--|
|-12----12-12----x-10-|--10--10-10-10----9--|
|-12--x-12-12----x-10-|--10--10-10-10-------|
|-10--x-10-10----x--8-|---8---8--8--8-------|
|--8--x--8--8---------|----------------x----|
|
|---------------------|---------------------|
|---------------------|--10--------10--x-x--|
|-12--x------------10-|--10--------10--x-x--|
|-12--x----12-12-x-10-|--10--------10--x-x--|
|-10--x-10-10-10-x--8-|---8---------8--x-x--|
|--8--x--8--8--8------|-------8-------------|


   F/C                GF/C                                  C
                                                                     ~~~~
|---------|---------|---------|------------------------------------------||
|---------|---------|---------|--------------------13-15b17-15b17==(15)--||
|---------|---------|---------|-----------12-12h14-----------------------||
|---------|---------|---------|--10-12s14--------------------------------||
|---------|---------|---------|------------------------------------------||
|---------|---------|---------|------------------------------------------||


 Guitar Solo
                                    F/C
    ~~~~                                     ~~~~~~~~~~~~~~~~~~                 ~~~
|-----------------------------------------------|------------------------------15-|
|-(15)----(15)r-15pb17r(15)-(15)p13-15b17==(15)-|-(15)----(15)-15r(15)-(15)p13----|
|-----------------------------------------------|---------------------------------|
|-----------------------------------------------|---------------------------------|
|-----------------------------------------------|---------------------------------|
|-----------------------------------------------|---------------------------------|


  G/C                 F/C                                   C
 ~~~~~~~~~~~~~~
|-(15)----(15)-15b17--15b17-|-15---15b17==(15)-(15)r(15)-13p12-|
|---------------------------|----------------------------------|
|---------------------------|----------------------------------|
|---------------------------|----------------------------------|
|---------------------------|----------------------------------|
|---------------------------|----------------------------------|


     F/C                                        G/C                                       F/C
   ~~~~~~~~~~~~~~~~                                      ~~~~~~~~~
|-----------|------15--15--18b20==(18)-(18)r--|-18b20==(18)-(18)r(18)pb19==(18)-(18)r(18)-18p15-|
|-13--------|-(13)----------------------------|-------------------------------------------------|
|-----------|---------------------------------|-------------------------------------------------|
|-----------|---------------------------------|-------------------------------------------------|
|-----------|---------------------------------|-------------------------------------------------|
|-----------|---------------------------------|-------------------------------------------------|


                                               C
|-18p15h18p15h18p15h18p15h18p15h18p15h18-18b20-(18)----|
|------------------------------------------------------|
|------------------------------------------------------|
|------------------------------------------------------|
|------------------------------------------------------|
|------------------------------------------------------|


                                  F/C
                             ~~~~~
|-18b20==(18)r(18)-(18)pb19-18b20----|--------------15-17b18==(17)r(17)-|
|------------------------------------|-----15-17h18---------------------|
|------------------------------------|---x------------------------------|
|------------------------------------|-x--------------------------------|
|------------------------------------|----------------------------------|
|------------------------------------|----------------------------------|


  G/C              F/C                       C
   ~~~~~~~~~~            ~~~~~~~~~~
|-15----(15)----------|-------------------------|
|------------18-17----|-------------------------|
|------------------17-|----------------------12-|
|---------------------|-17----(17)-\10-12s14----|
|---------------------|-------------------------|
|---------------------|-------------------------|


                         F/C
                                          ~~~~~~~
|-----------------------------|-----------------------------------------|
|--------13-(13)---15b17-(15)-|-15----13-13-(13)-------15b17==(15)r(15)-|
|-12--14---------0------------|----14------------14-14------------------|
|-----------------------------|-----------------------------------------|
|-----------------------------|-----------------------------------------|
|-----------------------------|-----------------------------------------|


  G/C                                F/C                          C
|-------------------------------------|-------------------------------|
|-(15)----13-13-(13)----15b17.5-(15)--|-15b16r(15)-13-13-(13)---------|
|------14------------14---------------|------------------------14-\7--|
|-------------------------------------|-------------------------------|
|-------------------------------------|-------------------------------|
|-------------------------------------|-------------------------------|


                             F/C
|---------------------------------|-------------------------------|
|--------13-13-(13)----15b17r(15)-|-------13-13-(13)--15b17-(15)--|
|-/12h14------------14------------|-12h14-------------------------|
|---------------------------------|-------------------------------|
|---------------------------------|-------------------------------|
|---------------------------------|-------------------------------|


  G/C                    F/C                    C
   ~~~~~~                         ~~~~~~~
|------------------------13-|-13h15-(15)--14s18----|
|-15b17=====(15)r-15b17-----|----------------------|
|---------------------------|----------------------|
|---------------------------|----------------------|
|---------------------------|----------------------|
|---------------------------|----------------------|


                       F/C
                 ~~~~~~                               ~~~~~~~~~
|-18--18-18pb20-18pb20----|-18b20-18b20-(18)-18b20==(18)-(18)r----|
|-------------------------|---------------------------------------|
|-------------------------|---------------------------------------|
|-------------------------|---------------------------------------|
|-------------------------|---------------------------------------|
|-------------------------|---------------------------------------|


  G/C                                F/C                                 C
                                              ~~~~~~~~~~
|-18b20r=(18)-18pb20r(18)-18b20-(18)-18b20==(18)-|-(18)---(18)r\------12-13-|
|------------------------------------------------|----------------/13-------|
|------------------------------------------------|--------------------------|
|------------------------------------------------|--------------------------|
|------------------------------------------------|--------------------------|
|------------------------------------------------|--------------------------|


                    F/C
                     ~~~~~~~~~
|-15-15-15--15-\13-----|-----------------18-18p15-|
|-------------------12-|-(12)-13-----13-----------|
|----------------------|----------12--------------|
|----------------------|--------------------------|
|----------------------|--------------------------|
|----------------------|--------------------------|


  G/C                 F/C                                         C
       ~~~~~~~~
|-17--17-17-17--17-17p13-|-17----13-17p13----13-17p13----13-15b17----|
|------------------------|----13----------13----------13-------------|
|------------------------|-------------------------------------------|
|------------------------|-------------------------------------------|
|------------------------|-------------------------------------------|
|------------------------|-------------------------------------------|


                          F/C
                ~~
|-15b17r==(15)-15--15b17==(15)r|=(15)----15b17r=(15)p12h13p12-|
|------------------------------|------------------------------|
|------------------------------|------------------------------|
|------------------------------|------------------------------|
|------------------------------|------------------------------|
|------------------------------|------------------------------|


  G/C                        F/C            C
                                    ~~~~~
|-13p12-------------------------|--------------*|
|-------13----------------------|--------------*|
|----------12-(12)--(12)-14--14-|-(14)\--------*|
|-------------------------------|--------------*|
|-------------------------------|--------------*|
|-------------------------------|--------------*|


Comments