Stutterfly - Fire Whispers Chords & Tabs

 

Fire Whispers Chords & Tabs

Stutterfly Chords & Tabs

Version: 1 Type: Tab 0 ratings
1 star 2 stars 3 stars 4 stars 5 stars
comments

Fire Whispers Tab

   
Artist: Stutterfly
Song: Fire Whispers
Album Broken Pieces
Tabbed by: Fred
* = palm muted
h= hammer

Intro: Clean
                     2X
E-------------------------------------------------|   
B-------------------------------------------------|     
G------6---------7--7--7---7-7--------------------|    
D--------6--6-----6--6--6---------6-6-6/-8-8-8--8-|    
A---------------------------------6-6-6/-8-8-8--8-|    
D---0-----------------------------6-6-6/-8-8-8--8-|      



Distortion
E----------------------------|------------------------------------|
B----------------------------|------------------------------------|
G-6-6-7-7--------------------|----6-6-7-7-------------------------|
D-6-6-6-6----6-6-6/-8-8-8--8-|----6-6-6-6----6-6-6-6-x-8-8-8-8----|
A-4-4-4-4----6-6-6/-8-8-8--8-|----4-4-4-4----6-6-6-6-x-8-8-8-8----|
D-0----------6-6-6/-8-8-8--8-|----0----------6-6-6-6-x-8-8-8-8----|

Verse: Clean

E--------------------------------------------------------------|
B--------------------------------------------------------------|
G----6---------7-7-7--7-7-----6----6---------8-----8--8--------|
D-------6--6----6-6-6----------6----6---------8-----8---8------|
A--------------------------------6---6----------8----8---------|
D-0-------------------------6---------------8------------------|

Pre-Chorus: Distortion

E-------------------------------------|------------------------------------|
B-------------------------------------|------------------------------------|
G-6--6--6--6--6---6--6----------------|6--6--6--6--6--7-6---7-6---7-6------|
D-6--6--6--6--6---6--6--6--6-6--8--8--|6--6--6--6--6--6-----6-----6--------|
A-4--4--4--4--4---4--4--6--6-6--8--8--|4--4--4--4--4--4-----4-----4--------|
D-0--0--0--0--0---0--0--6--6-6--8--8--|0--0--0--0--0--0-----0-----0--------|
     *  *  *  *      *  *  * *  *  *      *  *  *  *  *     *     *    

E----------------------------------------------------|
B----------------------------------------------------|
G---7-6-7-6-7-6-7-6-7-6-7-6-7-6-7-6-7-6-7-6-7-6-7----|
D----------------------------------------------------|
A----------------------------------------------------|
D----------------------------------------------------|
[ Tab from: http://www.guitartabs.cc/tabs/s/stutterfly/fire_whispers_tab.html ]
                                          
E---------------------------------------------|-------------------------|
B---------------------------------------------|-------------------------|
G---------------------------------------------|-------------------------|
D---8-/-6--6-6--6--6-------2--0--0--0-0--0--0-|---8-/-6-6-6-6--6--------|
A---8-/-6--6-6--6--6-------2--0--0--0-0--0--0-|---8-/-6-6-6-6--6--------|
D---8-/-6--6-6--6--6-------2--0--0--0-0--0--0-|---8-/-6-6-6-6--6--------|
                           *  *  * *  *  *

E--------------------|
B--------------------|
G--------------------|
D--10-h-12--8-6--8---|
A--------------------|
D--------------------|


Chorus:

E-------------------------------------------------------------------------|
B-------------------------------------------------------------------------|
G-------------------------------------------------------------------------|
D----------------------1--1--1--1--1----6-6-6-6-6-6-6-6-6--/-8-8--8-------|
A--4---6----6--5-------1--1--1--1--1----6-6-6-6-6-6-6-6-6--/-8-8--8-------|
D----------------------1--1--1--1--1----6-6-6-6-6-6-6-6-6--/-8-8--8-------|
On the next times you play the chorus,do the first four notes(4-6-6-5)with power chords(466),(688),(577)

Bridge:

E----------------------------|
B----------------------------|
G-------7----7----7-/-0------|
D-------7----7----7-/-0------|
A-------5----5----5-/-0------|
D----------------------------|

E-------------------------|
B-------------------------|
G-------------------------|
D------0-~~~-------6-~~~~-|
A------0-~~~-------6~~~~--|
D------0-~~~-------6-~~~~-|

E-------------------------|
B-------------------------|
G-------------------------|
D----6-6-6-6---x--8--8--8-|
A----6-6-6-6---x--8--8--8-|
D----6-6-6-6---x--8--8--8-|



E----------------------------|
B----------------------------|
G----------------------------|
D------0------0----0------0--|
A------0------0----0------0--|
D------0------0----0------0--|

Chorus:

E----------------------------------------------------|
B----------------------------------------------------|
G----------------------------------------------------|
D------1--1--1--1--1--6-6-6-6-6-6-6-6-6--/-8-8--8----|
A------1--1--1--1--1--6-6-6-6-6-6-6-6-6--/-8-8--8----|
D------1--1--1--1--1--6-6-6-6-6-6-6-6-6--/-8-8--8----|
repeat the chorus

Outro:

E----------------------------|
B----------------------------|
G-------7----7----7-/-0------|
D-------7----7----7-/-0------|
A-------5----5----5-/-0------|
D----------------------------|

E------------|
B------------|
G------------|
D------0-----|
A------0-----|
D------0-----|
Comments