Stun - Watch The Rebellion Grow Chords & Tabs

 

Watch The Rebellion Grow Chords & Tabs

Stun Chords & Tabs

Version: 1 Type: Bass Tab 0 ratings
1 star 2 stars 3 stars 4 stars 5 stars
comments

Watch The Rebellion Grow Bass Tab

Watch The Rebellion Grow



-Intro(Chorus)-
G|---------------|
D|---------------|
A|--44/22222222--| x4
E|44-------------|

-Verse-
G|-------------|
D|-------------|
A|------44-22--| x4
E|44-22--------|

-PreChorus-
G|--------------------------------------|
D|--------------------------------------|
A|--------------------------------------| x1
E|/444-6/444444444/66/4-6/44444444~-----|
[ Tab from: http://www.guitartabs.cc/tabs/s/stun/watch_the_rebellion_grow_btab.html ]
-Chorus-
G|--------------------------------------|
D|--------------------------------------|
A|--44/11111111-------------------------| x4
E|44------------------------------------|

-Chorus- x4
-Verse- x4
-PreChorus- x1
-Chorus- x6

Solo
G|--------------------------------------------|
D|--------------------------------------------|
A|--------4(x16)-6666-4444-6666-4444----------| x2
E|4 (x16)------------------------------------|

-PreChorus- x1
-Chorus- x9

End
G|-------------------|
D|-------------------|
A|-----4-4-----1-1~--|
E|-4-4---------------|
Comments