Stun - Love And Chaos Chords & Tabs

 

Love And Chaos Chords & Tabs

Stun Chords & Tabs

Version: 2 Type: Bass Tab

Love And Chaos Bass Tab

    This tab is pretty straight forward, everything is tabbed in order of how
its played. Have fun, this song is easy and it rocks!


INTRO:
G]---------------------------------------------------------------------------|
D]---------------------22222220----------55555554----------------------------|
A]------22-2------55-5----------22222222----------55555555----------22222222-|
E]-00-0------33-3------------------------------------------00000000----------|

INTRO(cont.):               VERSE:
G]-------------------       G]-------44----------------77------------[x2]
D]-------------------       D]-222222----------44555555-----------55-[x2]
A]----------55555555-       A]-----------222222-------------555555---[x2]
E]-33333333----------       E]---------------------------------------[x2]
[ Tab from: http://www.guitartabs.cc/tabs/s/stun/love_and_chaos_btab_ver_2.html ]
PRE-CHORUS:                           CHORUS:
G]-----------------------------------/----------------------------------[x2]
D]------------------55555554---------/----------------------------------[x2]
A]---------22222222---------55555555-/---------22222222--------55555555-[x2]
E]-00000000--------------------------/-00000000--------33333333---------[x2]

BIT BEFORE 2ND VERSE:
G]-------------------------------------------------------------------|
D]-22222220--------55555554--------22222222--------------------------|
A]---------22222222--------55555555--------22222222---------55555555-|
E]--------------------------------------------------33333333---------|

 VERSE x2

 PRE-CHORUS x1 -- CHORUS x2

THEN:
G]-------------------------------------------------------------------|
D]-22222220------4455555555------55-22222220------4455555555---------|
A]---------222222----------555555-----------222222----------55555555-|
E]-------------------------------------------------------------------|

 CHORUS x1

THEN:
G]-------44--------------77---------------44-------------------------|
D]-222222--------44555555--------55-222222--------4455555555---------|
A]---------222222----------555555-----------222222----------55555555-|
E]-------------------------------------------------------------------|

 CHORUSx6

ENDING:
G]---------------|
D]---------------|
A]-------------5-|
E]-0-0-0-0-0-0---|


                     THERE YOU HAVE IT ENJOY!