Stun - Annihilation Of The Generations Chords & Tabs

 

Annihilation Of The Generations Chords & Tabs

Stun Chords & Tabs

Version: 1 Type: Tab 0 ratings
1 star 2 stars 3 stars 4 stars 5 stars
comments

Annihilation Of The Generations Tab

Song   - Annihilation of the generations
Band   - S.T.U.N.
Album  - Evolution of Energy
Tuning - Standard(EADGBE)
b - bend up
|--------------------------------|
|--------------------------------|
|-9-9-9-99-99-9-9-99-------------|
|-x-x-x-xx-xx-x-x-xx-------------|x2
|-7-7-7-77-77-7-7-77-------------|
|--------------------------------|


|--------------------------------|
|--------------------------------|
|-9999999999999999---------------|
|-xxxxxxxxxxxxxxxx---------------|
|-7777777777777777---------------|
|--------------------------------|
(listen to the song for right hand part)

|--------------------------------|
|-10-10-12-12-12-----------------|
|--9--9--9--9--9-----------------|
|--------------------------------|
|--------------------------------|
|--------------------------------|

< chorus >
|--------------------------------|
|--------------------------------|
|----------2222-4444-------------|
|-22222222-2222-4444-------------|
|-22222222-0000-2222-------------|
|-00000000-----------------------|
[ Tab from: http://www.guitartabs.cc/tabs/s/stun/annihilation_of_the_generations_tab.html ]
< solo >
|----------------------12-11-9-9-------------------|
|--------12-12-12-12-12-----------12-12------------|
|---8-11-------------------------------------------|
|-9------------------------------------------------|
|--------------------------------------------------|
|--------------------------------------------------|


|--------------------------------|
|------------11b11b11b11b11------|
|-9-8-8-9-9----------------------|
|--------------------------------|
|--------------------------------|
|--------------------------------|


|--------------------------------|
|------------------12---12-12----|
|--------------8-8----8-------8--|
|-----9---9-9--------------------|
|-7-7---8------------------------|
|--------------------------------|

|---------------------------------|
|---------------12b14b112-10b11-9-|
|---------------------------------|
|-----9---9-9---------------------|
|-7-7---7-----7-------------------|
|---------------------------------|

|--------------------------------|
|--------------------------------|
|----------------9-9-------------|
|----------2222--x-x-------------|
|----------2222--7-7-------------|
|--5---7---0000------------------|

|--------------------------------|
|--------------------------------|
|--------------------------------|
|--------------------------------|
|--------------------------------|
|--5---8---12---12b13------------|


That's it! This is not a complete tab. I try the best. Peace Out!
Comments