Student Rick - Please Forgive Me Chords & Tabs

 

Please Forgive Me Chords & Tabs

Student Rick Chords & Tabs

Version: 1 Type: Tab 0 ratings
1 star 2 stars 3 stars 4 stars 5 stars
comments

Please Forgive Me Tab

   
Band  : Student Rick
Song  : Please Forgive Me (Track #4/13)
Album : Soundtrack for a Generation ('2001)


i got most of this from punkhardcore.com, but made a few changes to some
of the mistakes. mad props to Jim Hillis 3. good job.

The two guitars on this TAB are separated into what each guitarist plays
rather than lead and rhythm. One is the right side of the recording and one
is the left (listen to it on head phones to hear the separation) 

Key: 
* - Palm mute that chord/note 
/ - Slide from the note in front to the note afterwards 
X - Mute the strings, stop sound before next note. 

Guitar One 
========== 
Intro: 
e|--9-9-9-8-8-8------------|          e|---11-9-8-8-8h9-9-8---| 
B|--------------9-9--------| < Play 3 B|----------------------| < Play once 
G|-------------------------| times    G|----------------------| after the 
D|-------------------------|          D|----------------------| first part 
A|-------------------------|          A|----------------------| 
E|-------------------------|          E|----------------------| 
* Repeat all of the above 

Verse One: 
* * * * * * * * * * * * * * * * * * * * * * * * * * * * * * * * <- p.m. 
e|-----------------------------------------------------------------| 
B|-----------------------------------------------------------------| 
G|-6-6-6-6-6-6-6-6-------------------------------------------------| 
D|-6-6-6-6-6-6-6-6-6-6-6-6-6-6-6-6-8-8-8-8-8-8-8-8-4-4-4-4-4-4-4-4-| < Play 4 
A|-4-4-4-4-4-4-4-4-6-6-6-6-6-6-6-6-8-8-8-8-8-8-8-8-4-4-4-4-4-4-4-4-| times 
E|-----------------4-4-4-4-4-4-4-4-6-6-6-6-6-6-6-6-2-2-2-2-2-2-2-2-| 
* On fourth play through the end of the part builds up into the chorus. 

Pre-Chorus: 
e|--------------------------------------------------| 
B|--------------------------------------------------| 
G|10-10-10-10-10-10-10-10---------10-10-10-10/11-11-| 
D|10-10-10-10-10-10-10-10-8-8-8-8--x--x--x--x/-x--x-|< Play 2 times 
A|-8--8--8--8--8--8--8--8-8-8-8-8--8--8--8--8/-9--9-| 
E|------------------------6-6-6-6-------------------| 

e|--------------------------------------------------| 
B|--------------------------------------------------| 
G|10-10-10-10-10-10-10-10---------X-10-10-10/11-11-11-| 
D|10-10-10-10-10-10-10-10-8-8-8-8-X--x--x--x/-x--x--x-|< Play 2 times 
A|-8--8--8--8--8--8--8--8-8-8-8-8-X--8--8--8/-9--9--9-| 
E|------------------------6-6-6-6-------------------| 

Chorus: 
e|-----------------------------------------------------------------| 
B|-----------------------------------------------------------------| 
G|-6-6-6-6-6-6-6-6-5-5-5-5-5-5-5-5---------------------------------| 
D|-6-6-6-6-6-6-6-6-6-6-6-6-6-6-6-6-8-8-8-8-8-8-8-8-4-4-4-4-4-------| < Play 1 
A|-4-4-4-4-4-4-4-4-3-3-3-3-3-3-3-3-8-8-8-8-8-8-8-8-4-4-4-4-4-------| time 
E|---------------------------------6-6-6-6-6-6-6-6-2-2-2-2-2-------| 

e|-----------------------------------------------------------------| 
B|-----------------------------------------------------------------| 
G|-6---6---6---6---5---5---5---5-----------------------------------| 
D|-6---6---6---6---6---6---6---6---8---8---8---8---4---4---4->-----| < Play 1 
A|-4---4---4---4---3---3---3---3---8---8---8---8---4---4---4->-----| time 
E|---------------------------------6---6---6---6---2---2---2->-----| 

Pre-Verse: 
e|-------------------------| e|-------------------------| 
B|-14-14-14-13-13-13-------| < Play 8 B|-16-14-13-13-13h14>13-13-| < Play 1 
G|-------------------13-13-| times G|-------------------------| time 
D|-------------------------| D|-------------------------| 
A|-------------------------| A|-------------------------| 
E|-------------------------| E|-------------------------| 

Verse Two: 
* * * * * * * * * * * * * * * * * * * * * * * * * * * * * * * * <- p.m. 
e|-----------------------------------------------------------------| 
B|-----------------------------------------------------------------| 
G|-6-6-6-6-6-6-6-6-------------------------------------------------| 
D|-6-6-6-6-6-6-6-6-6-6-6-6-6-6-6-6-8-8-8-8-8-8-8-8-4-4-4-4-4-4-4-4-| < Play 2 
A|-4-4-4-4-4-4-4-4-6-6-6-6-6-6-6-6-8-8-8-8-8-8-8-8-4-4-4-4-4-4-4-4-| times 
E|-----------------4-4-4-4-4-4-4-4-6-6-6-6-6-6-6-6-2-2-2-2-2-2-2-2-| 

e|----------------------------------------------------------------| 
B|----------------------------------------------------------------| 
G|----------------------------------------------------------------| 
D|------------6->--4->--3->--------------------6->--4->--3->--6>--| < Play 2 
A|-4->-----------------------6->---4->----------------------------| times 
E|----------------------------------------------------------------| 
* This part is real quiet underneath the other guitar playing the palm 
muted chords but it IS there, just listen carefully. 

Pre-Chorus Two: 
e|-------------------------------------------------| 
B|-------------------------------------------------| 
G|10-10-10-10-10-10-10-10--------10-10-10/11-11-11-| 
D|10-10-10-10-10-10-10-10-8-8-8-8-x--x--x/-x--x--x-| < Play 1 time 
A|-8--8--8--8--8--8--8--8-8-8-8-8-8--8--8/-9--9--9-| 
E|------------------------6-6-6-6------------------| 

e|---------------------------------------------------| 
B|---------------------------------------------------| 
G|10-10-10-10-10-10-10-10--------10-10-10-X-11-11-11-| 
D|10-10-10-10-10-10-10-10-8-8-8-8-x--x--x-X--x--x--x-| < Play 1 time 
A|-8--8--8--8--8--8--8--8-8-8-8-8-8--8--8-X--9--9--9-| 
E|------------------------6-6-6-6--------------------| 

Chorus Two: 
e|-----------------------------------------------------------------| 
B|-----------------------------------------------------------------| 
G|-6-6-6-6-6-6-6-6-5-5-5-5-5-5-5-5---------------------------------| 
D|-6-6-6-6-6-6-6-6-6-6-6-6-6-6-6-6-8-8-8-8-8-8-8-8-4-4-4-4-4-4-4-4-| < Play 1 
A|-4-4-4-4-4-4-4-4-3-3-3-3-3-3-3-3-8-8-8-8-8-8-8-8-4-4-4-4-4-4-4-4-| time 
E|---------------------------------6-6-6-6-6-6-6-6-2-2-2-2-2-2-2-2-| 

e|-----------------------------------------------------------------| 
B|-----------------------------------------------------------------| 
G|-6-6-6-6-6-6-6-6-5-5-5-5-5-5-5-5---------------------------------| 
D|-6-6-6-6-6-6-6-6-6-6-6-6-6-6-6-6-8-8-8-8-8-8-8-8-4-4-4-4-4-------| < Play 1 
A|-4-4-4-4-4-4-4-4-3-3-3-3-3-3-3-3-8-8-8-8-8-8-8-8-4-4-4-4-4-------| time 
E|---------------------------------6-6-6-6-6-6-6-6-2-2-2-2-2-------| 

Bridge: 
e|---------------------------------| 
B|---------------------------------| 
G|-6->-----------------------------| 
D|-6->-----------------------------| < Play 1 Time 
A|-4->-----------------------------| 
E|---------------------------------| 

* * * * * * * * * * * * * * * * * * * * * * * * * * * * * * * * <- p.m. 
e|-----------------------------------------------------------------| 
B|-----------------------------------------------------------------| 
G|-6-6-6-6-6-6-6-6-------------------------------------------------| 
D|-6-6-6-6-6-6-6-6-6-6-6-6-6-6-6-6-8-8-8-8-8-8-8-8-4-4-4-4-4-4-4-4-| < Play 2 
A|-4-4-4-4-4-4-4-4-6-6-6-6-6-6-6-6-8-8-8-8-8-8-8-8-4-4-4-4-4-4-4-4-| times 
E|-----------------4-4-4-4-4-4-4-4-6-6-6-6-6-6-6-6-2-2-2-2-2-2-2-2-| 

* * * * * * * * <- p.m. 
e|-----------------------------------------------------------------| 
B|-----------------------------------------------------------------| 
G|-6->-----------------------------6->-------------6-6-6-6-6-6-6-6-| 
D|-6->-----------------------------6->-------------6-6-6-6-6-6-6-6-| < Play 
A|-4->-----------------------------4->-------------4-4-4-4-4-4-4-4-| 1 time 
E|-----------------------------------------------------------------| 
* The palm mutes at the end are a build up. 
* During the build up there is a pick slide, but it's a 3rd guitar so ... 
[ Tab from: http://www.guitartabs.cc/tabs/s/student_rick/please_forgive_me_tab.html ]
Chorus Three: 
e|-----------------------------------------------------------------| 
B|-----------------------------------------------------------------| 
G|-6-6-6-6-6-6-6-6-5-5-5-5-5-5-5-5---------------------------------| 
D|-6-6-6-6-6-6-6-6-6-6-6-6-6-6-6-6-8-8-8-8-8-8-8-8-4-4-4-4-4-------| < Play 1 
A|-4-4-4-4-4-4-4-4-3-3-3-3-3-3-3-3-8-8-8-8-8-8-8-8-4-4-4-4-4-------| time 
E|---------------------------------6-6-6-6-6-6-6-6-2-2-2-2-2-------| 

e|-----------------------------------------------------------------| 
B|-----------------------------------------------------------------| 
G|-6---6---6---6---5---5---5---5-----------------------------------| 
D|-6---6---6---6---6---6---6---6---8---8---8---8---4---4---4->-----| < Play 1 
A|-4---4---4---4---3---3---3---3---8---8---8---8---4---4---4->-----| time 
E|---------------------------------6---6---6---6---2---2---2->-----| 

Guitar Two 
========== 
Intro: 
* * * * * * * * * * * * * * * * * * * * * * * * * * * * * * * * <- p.m. 
e|-----------------------------------------------------------------| 
B|-----------------------------------------------------------------| 
G|-6-6-6-6-6-6-6-6-------------------------------------------------| 
D|-6-6-6-6-6-6-6-6-6-6-6-6-6-6-6-6-8-8-8-8-8-8-8-8-4-4-4-4-4-4-4-4-| < Play 2 
A|-4-4-4-4-4-4-4-4-6-6-6-6-6-6-6-6-8-8-8-8-8-8-8-8-4-4-4-4-4-4-4-4-| times 
E|-----------------4-4-4-4-4-4-4-4-6-6-6-6-6-6-6-6-2-2-2-2-2-2-2-2-| 

Verse One: 
* * * * * * * * * * * * * * * * * * * * * * * * * * * * * * * * <- p.m. 
e|-----------------------------------------------------------------| 
B|-----------------------------------------------------------------| 
G|-6-6-6-6-6-6-6-6-------------------------------------------------| 
D|-6-6-6-6-6-6-6-6-6-6-6-6-6-6-6-6-8-8-8-8-8-8-8-8-4-4-4-4-4-4-4-4-| < Play 4 
A|-4-4-4-4-4-4-4-4-6-6-6-6-6-6-6-6-8-8-8-8-8-8-8-8-4-4-4-4-4-4-4-4-| times 
E|-----------------4-4-4-4-4-4-4-4-6-6-6-6-6-6-6-6-2-2-2-2-2-2-2-2-| 

Pre-Chorus: 
e|---------------------------------------------------------| 
B|---------------------------------------------------------| 
G|11-11-11-11-11-10-10-10-11-11-11-15-15-15-15-15-15-15-13-| 
D|-x--x--x--x--x--x--x--x--x--x--x--x--x--x--x--x--x--x--x-| < Play 1 
A|-9--9--9--9--9--8--8--8--9--9--9-13-13-13-13-13-13-13-11-| time 
E|---------------------------------------------------------| 

e|---------------------------------------------------------------------| 
B|---------------------------------------------------------------------| 
G|10-11-11-11-11-10-10-10-11-11-11-10-10-10-10-10--X-10-10-10-11-11-11-| 
D|-x--x--x--x--x--x--x--x--x--x--x--x--x--x--x--x--X--x--x--x--x--x--x-|< Play 
A|-8--9--9--9--9--8--8--8--9--9--9--8--8--8--8--8--X--8--8--8--9--9--9-|1 time 
E|---------------------------------------------------------------------| 

Chorus One: 
e|-----------------------------------------------------------------| 
B|-----------------------------------------------------------------| 
G|-6-6-6-6-6-6-6-6-5-5-5-5-5-5-5-5---------------------------------| 
D|-6-6-6-6-6-6-6-6-6-6-6-6-6-6-6-6-8-8-8-8-8-8-8-8-4-4-4-4-4-------| < Play 1 
A|-4-4-4-4-4-4-4-4-3-3-3-3-3-3-3-3-8-8-8-8-8-8-8-8-4-4-4-4-4-------| time 
E|---------------------------------6-6-6-6-6-6-6-6-2-2-2-2-2-------| 

e|-----------------------------------------------------------------| 
B|-----------------------------------------------------------------| 
G|-6---6---6---6---5---5---5---5-----------------------------------| 
D|-6---6---6---6---6---6---6---6---8---8---8---8---4---4---4->-----| < Play 1 
A|-4---4---4---4---3---3---3---3---8---8---8---8---4---4---4->-----| time 
E|---------------------------------6---6---6---6---2---2---2->-----| 

Pre-Verse: 
* * * * * * * * * * * * * * * * * * * * * * * * <- p.m. 
e|-----------------------------------------------------------------| 
B|-----------------------------------------------------------------| 
G|-6->-------------------------------------------------------------| 
D|-6->-------------6-6-6-6-6-6-6-6-8-8-8-8-8-8-8-8-4-4-4-4-4-4-4-4-| < Play 1 
A|-4->-------------6-6-6-6-6-6-6-6-8-8-8-8-8-8-8-8-4-4-4-4-4-4-4-4-| time 
E|-----------------4-4-4-4-4-4-4-4-6-6-6-6-6-6-6-6-2-2-2-2-2-2-2-2-| 

* * * * * * * * * * * * * * * * * * * * * * * * * * * * * * * * <- p.m. 
e|-----------------------------------------------------------------| 
B|-----------------------------------------------------------------| 
G|-6-6-6-6-6-6-6-6-------------------------------------------------| 
D|-6-6-6-6-6-6-6-6-6-6-6-6-6-6-6-6-8-8-8-8-8-8-8-8-4-4-4-4-4-4-4-4-| < Play 1 
A|-4-4-4-4-4-4-4-4-6-6-6-6-6-6-6-6-8-8-8-8-8-8-8-8-4-4-4-4-4-4-4-4-| time 
E|-----------------4-4-4-4-4-4-4-4-6-6-6-6-6-6-6-6-2-2-2-2-2-2-2-2-| 

Verse Two: 
* * * * * * * * * * * * * * * * * * * * * * * * * * * * * * * * <- p.m. 
e|-----------------------------------------------------------------| 
B|-----------------------------------------------------------------| 
G|-6-6-6-6-6-6-6-6-------------------------------------------------| 
D|-6-6-6-6-6-6-6-6-6-6-6-6-6-6-6-6-8-8-8-8-8-8-8-8-4-4-4-4-4-4-4-4-| < Play 4 
A|-4-4-4-4-4-4-4-4-6-6-6-6-6-6-6-6-8-8-8-8-8-8-8-8-4-4-4-4-4-4-4-4-| times 
E|-----------------4-4-4-4-4-4-4-4-6-6-6-6-6-6-6-6-2-2-2-2-2-2-2-2-| 

Pre-Chorus Two: 
e|---------------------------------------------------------| 
B|---------------------------------------------------------| 
G|11-11-11-11-11-10-10-10-10-10-10-15-15-15-15-15-15-15-13-| 
D|-x--x--x--x--x--x--x--x--x--x--x--x--x--x--x--x--x--x--x-| < Play 1 
A|-9--9--9--9--9--8--8--8--9--9--9-13-13-13-13-13-13-13-11-| time 
E|---------------------------------------------------------| 

e|---------------------------------------------------------------------| 
B|---------------------------------------------------------------------| 
G|11-11-11-11-11-10-10-10-11-11-11-10-10-10-10-10--X-10-10-10-11-11-11-| 
D|-x--x--x--x--x--x--x--x--x--x--x--x--x--x--x--x--X--x--x--x--x--x--x-|< Play 
A|-9--9--9--9--9--8--8--8--9--9--9--8--8--8--8--8--X--8--8--8--9--9--9-|1 time 
E|---------------------------------------------------------------------| 

Chorus Two: 
e|-----------------------------------------------------------------| 
B|-----------------------------------------------------------------| 
G|-6-6-6-6-6-6-6-6-5-5-5-5-5-5-5-5---------------------------------| 
D|-6-6-6-6-6-6-6-6-6-6-6-6-6-6-6-6-8-8-8-8-8-8-8-8-4-4-4-4-4-4-4-4-| < Play 1 
A|-4-4-4-4-4-4-4-4-3-3-3-3-3-3-3-3-8-8-8-8-8-8-8-8-4-4-4-4-4-4-4-4-| time 
E|---------------------------------6-6-6-6-6-6-6-6-2-2-2-2-2-2-2-2-| 

e|-----------------------------------------------------------------| 
B|-----------------------------------------------------------------| 
G|-6-6-6-6-6-6-6-6-5-5-5-5-5-5-5-5---------------------------------| 
D|-6-6-6-6-6-6-6-6-6-6-6-6-6-6-6-6-8-8-8-8-8-8-8-8-4-4-4-4-4-------| < Play 1 
A|-4-4-4-4-4-4-4-4-3-3-3-3-3-3-3-3-8-8-8-8-8-8-8-8-4-4-4-4-4-------| time 
E|---------------------------------6-6-6-6-6-6-6-6-2-2-2-2-2-------| 

Bridge: 
e|--9-9-9-8-8-8------------|           e|--9p8h11p9----| 
B|--------------9-9--------| < Play 12 B|--------------| < Play 8
G|-------------------------| times     G|--------------| times 
D|-------------------------|           D|--------------| 
A|-------------------------|           A|--------------| 
E|-------------------------|           E|--------------| 
* On the second part of the bridge don't strum the notes, but just use your 
fingers hitting the strings on the hammer's and pull-off's to make the 
sound, as it sounds more like it does on the CD this way. Plus it's cool. 

Chorus Three: 
e|-----------------------------------------------------------------| 
B|-----------------------------------------------------------------| 
G|-6-6-6-6-6-6-6-6-5-5-5-5-5-5-5-5---------------------------------| 
D|-6-6-6-6-6-6-6-6-6-6-6-6-6-6-6-6-8-8-8-8-8-8-8-8-4-4-4-4-4-------| < Play 1 
A|-4-4-4-4-4-4-4-4-3-3-3-3-3-3-3-3-8-8-8-8-8-8-8-8-4-4-4-4-4-------| time 
E|---------------------------------6-6-6-6-6-6-6-6-2-2-2-2-2-------| 

e|-----------------------------------------------------------------| 
B|-----------------------------------------------------------------| 
G|-6---6---6---6---5---5---5---5-----------------------------------| 
D|-6---6---6---6---6---6---6---6---8---8---8---8---4---4---4->-----| < Play 1 
A|-4---4---4---4---3---3---3---3---8---8---8---8---4---4---4->-----| time 
E|---------------------------------6---6---6---6---2---2---2->-----|
Comments