Student Rick - October Sky Chords & Tabs

 

October Sky Chords & Tabs

Student Rick Chords & Tabs

Version: 1 Type: Tab 0 ratings
1 star 2 stars 3 stars 4 stars 5 stars
comments

October Sky Tab

Artist: Student Rick
Song: October Sky
Standard tuning

This is my first tab, so please rate it. I'm 93% sure for this tab.


Intro:
Guitar 1
e-----------------------------------------------------|
B------9--------9--------9--------9-------------------|
G---9---9----9---9----9---9----9---9------------------|
D--9-9---9--9-9---9--9-9---9--9-9---9-----------------| (x1)
A-7--------6--------0--------0------------------------|
E-----------------------------------------------------|


Verse:

Guitar 1
e-----------------------------------------------------|
B------9--------9--------9--------9-------------------|
G---9---9----9---9----9---9----9---9------------------|
D--9-9---9--9-9---9--9-9---9--9-9---9-----------------| (x5)
A-7--------6--------0--------0------------------------|
E-----------------------------------------------------|

Guitar 2
e-----------------------------------------------------|
B-9-9p10r9---12-10r9-9---9-9p10r9---12-10r9-----------|
G---------9----------------------9----------9---------|
D-----------------------------------------------------| (x5)
A-----------------------------------------------------|
E-----------------------------------------------------|


Bridge:

Guitar 1
e-----------------------------------------------------|
B-----------------------------------------------------|
G-99-11-9-888-9-8-7777-7777---------------------------|
D-99-11-9-888-9-8-7777-7777---------------------------| (x4)
A-77-9--7-666-7-6-7777-7777---------------------------|
E-----------------5555-5555---------------------------|
   X       xx     xxx  xxx

e--------|
B--------|
G-9------|
D-9------| (x5)
A-7------|
E--------|

Pre-chorus:
Guitar 1
e----------------------------------------------------|
B----------------------------------------------------|
G-66-------77-------9------8-------------------------|
D-66(x16)-77(x16)--9------9-------------------------| (x3)
A-44-------55-------7------6-------------------------|
E----------------------------------------------------|
   x        x
e----
B----
G-9--
D-9--
A-7--
E----

Guitar 2
e----------------------------------------------------|
B-9--------10----------------------------------------|
G----------10-------9------8-------------------------|
D-6--------7-----------------------------------------| (x3)
A-------------------7------6-------------------------|
E----------------------------------------------------|

e------------------|
B-10--10-10-10r9---|
G---------------9--|
D------------------|
A------------------|
E------------------|


Chorus:

Guitar 1
e---------------------------------------------------|
B---------------------------------------------------|
G-9-----8-------------------------------------------|
D-9-----9-----7777----------7777--------------------|
A-7-----6-----7777----------7777--------------------|
E-------------5555----------5555--------------------|
               xx            xx
[ Tab from: http://www.guitartabs.cc/tabs/s/student_rick/october_sky_tab.html ]
e---------------------------------------------------|
B---------------------------------------------------|
G-9-----8-------------------------------------------|
D-9-----9-----777777777-----777777777---------------|
A-7-----6-----777777777-----777777777---------------|
E-------------555555555-----555555555---------------|
                  xx xx         xx xx

e------------------|
B------------------|
G-9-----8----------|
D-9-----9------7---| (x2)
A-7-----6------7---|
E--------------5---|

Guitar 2
e------------------|
B--------------10--|
G-9-----8----------|
D--------------7---| (x2)
A-7-----6----------|
E------------------|

e---------------------------------------------------|
B--------------10/12\10\9---------------------------|
G-9-----8-------------------------------------------|
D--------------7-/9-\7-\6---------------------------| (x2)
A-7-----6-------------------------------------------|
E---------------------------------------------------|


(Pre-chorus)
(Chorus)


Bridge:

Guitar 2
e---------------------------------------------------|
B-----------101010/12\10\9-------------------------|
G-9-99/8-88-----------------------------------------|
D-----------7--7-7-/9-\7-\6-------------------------| (x2)
A-7-77/6-66-----------------------------------------|
E---------------------------------------------------|

Guitar 1
e-----------------------------------------------------|
B------9--------9--------9--------9-------------------|
G---9---9----9---9----9---9----9---9------------------|
D--9-9---9--9-9---9--9-9---9--9-9---9-----------------|
A-7--------6--------0--------0------------------------|
E-----------------------------------------------------|


Outro:

Guitar 1
e-----------------------------------------------------|
B------9--------9--------9--------9-------------------|
G---9---9----9---9----9---9----9---9------------------|
D--9-9---9--9-9---9--9-9---9--9-9---9-----------------| (x2)
A-7--------6--------0--------0------------------------|
E-----------------------------------------------------|

Guitar 2
e-----------------------------------------------------|
B-99p10r9---12---14---12--10-9p10-8p9-7p10-7p9-7-10---|
G---------------------------------------------------9-|
D-----------------------------------------------------|
A-----------------------------------------------------|
E-----------------------------------------------------|

e-----------------------------------------------------|
B-99p10r9---12---14---12------------------------------|
G-----------------------------------------------------|
D-----------------------------------------------------|
A-----------------------------------------------------|
E-----------------------------------------------------|


Guitar 1
e-----------------------------------------------------|
B------9--------9--------9----------------------------|
G---9---9----9---9----9---9---------------------------|
D--9-9---9--9-9---9--9-9---9--------------------------|
A-7--------6--------0--------0~-----------------------|
E-----------------------------------------------------|

	This is a nice song. I don't why no one wants to make a tab of this song.
Sop maybe I'm the first one to tab it. I'm not sure for some of the riffs but this
is the easy way to play it. For corrections, please e-mail me @ mutedispenser@yahoo.com

/= slide up
\= slide down
P= punch
r= remove
Comments