Student Rick - Meet You Halfway There Chords & Tabs

 

Meet You Halfway There Chords & Tabs

Student Rick Chords & Tabs

Version: 1 Type: Tab 0 ratings
1 star 2 stars 3 stars 4 stars 5 stars
comments

Meet You Halfway There Tab

Student Rick - Meet You Halfway There
2001
ALbum : Soundtrack for a generation
Tabbed by Ben The Dude
(ben_thedude@hotmail.com)
Tempo : 124

Acoustic Guitar (play the riffs non stop 9 times)
Intro x1
Verse x2
Chorus x2
Verse (2) x2
Chorus x2
End x1

e|--------------------------------
B|--------3----------3------------
G|--------------------------------
D|--0--4----4--0--4-----4---------
A|--------------------------------
E|--------------------------------

e|--------------------------------
B|--------------------------------
G|--------0-----------0-----------
D|-----4-----4-----2-----2--------
A|--0-----------0-----------------
E|--------------------------------
[ Tab from: http://www.guitartabs.cc/tabs/s/student_rick/meet_you_halfway_there_tab.html ]
e|--------------------------------
B|--------3-----------3-----------
G|--------------------------------
D|-----4-----4-----4-----4--------
A|--2-----------2-----------------
E|--------------------------------

e|--------------------------------
B|--------------------------------
G|--------0-----------0-----------
D|-----4-----4-----2-----2--------
A|--0-----------0-----------------
E|--------------------------------

e|--------------------------------
B|--------0-----------0-----------
G|--------------------------------
D|-----0-----0-----0-----0--------
A|--------------------------------
E|--3-----------3-----------------

e|--------------------------------
B|--------2-----------2-----------
G|-----2-----2-----2-----2--------
D|--------------------------------
A|--0-----------0-----------------
E|--------------------------------


|-------------->End
Comments