Student Rick - Falling For You Chords & Tabs

 

Falling For You Chords & Tabs

Student Rick Chords & Tabs

Version: 1 Type: Tab 0 ratings
1 star 2 stars 3 stars 4 stars 5 stars
comments

Falling For You Tab

tabbed by: henrik Iversen

This is a cool song! Hope you understand the tab. it's 98.9998% correct...
 
/
guitar 1
intro/verse
|-----------------------------------------------------------|
|-----------------------------------------------------------|
|---------8xxxxxx-------------------------8xxxxxx-----------|
|-6xxxxxx-8xxxxxx-3xxxxxx-2xxxxxx-6xxxxxx-8xxxxxx-3xxxxxx-2-|
|-6xxxxxx-6xxxxxx-3xxxxxx-2xxxxxx-6xxxxxx-6xxxxxx-3xxxxxx-2-|
|-4xxxxxx---------1xxxxxx-0xxxxxx-4xxxxxx---------1xxxxxx-0-|

guitar 2
|-----------------------------------------------------------|
|-----------------------------------------------------------|
|-----------------------------------------------------------|
|---------------------------------6-----------------------2-|
|---------------------------------6-hold------------------2-|
|---------------------------------4-----------------------0-|
\

/
guitar 1 solo thing
|-----------------------------------------------------------|
|-----------------------------------------------------------|
|----------------------10----10----9----9-------------------|
|-11-10-11-10-13-10-13----10----10---10---11-10-11-10-13-10-|
|-----------------------------------------------------------|
|-----------------------------------------------------------|

cont...
|---------------------------------|
|-----------------------------8-9-|
|-------10----10----9----9-10-----|
|-13-10----10----10---10----------|
|---------------------------------|
|---------------------------------|
[ Tab from: http://www.guitartabs.cc/tabs/s/student_rick/falling_for_you_tab.html ]
guitar 2 
|---------------------------------------------------------|
|---------------------------------------------------------|
|---8-10-9---8-10-9-10-12-13------13-13xx-13-13xx-13xx-13-|
|-6-8-10-9-6-8-10-9-10-12-13-hold-13-13xx-13-13xx-13xx-13-|
|-6-6--8-7-6-6--8-7--8-10-11------11-13xx-11\10xx/11xx\10-|
|-4--------4----------------------------------------------|
\
chours (w. guitar 1 solo)
|-------------------------|
|-------------------------|
|-------88xxx-------------|
|-66xxx-88xxx-33333-22222-|
|-66xxx-66xxx-33333-22222-|
|-44xxx-------11111-00000-|

after chours: falling for you,falling for you...
|---------|
|---------|
|-----6-8-|
|-6-3-6-8-|
|-6-3-4-6-|
|-4-1-----|

solo thing w. guitar 1 and 2

then:
|-------------------------------|
|h9p8h9p8h9p8h9p8h9p8h9p8h9p8h9-|
|-------------------------------|
|-------------------------------|
|-------------------------------|
|-------------------------------|

chours
after chours

I'm die'n... 
|--------------------------------------------------------------
|--------------------------------------------------------------
|------------6->>----------------------------6xxxxxxx----------
|-6-5-3->>---6->>---6->>---5xxxxxxx-3xxxxxxx-6xxxxxxx-6xxxxxxx-
|-6-5-3->>---4->>---6->>---5xxxxxxx-3xxxxxxx-4xxxxxxx-6xxxxxxx-
|-4-3-1->>----------4->>---3xxxxxxx-1xxxxxxx----------4xxxxxxx-

 -----------------------------------------------------------------
 -----------------------------------------------------------------
 --------------5/66666666------------------------6666666----------
 -5xxxxxxx-33--5/66666666-66666666-55555555-33---6666666-66666666-
 -5xxxxxxx-33--3/44444444-66666666-55555555-33---4444444-66666666-
 -3xxxxxxx-11-------------44444444-33333333-11-----------44444444-

 ----------|
 ----------|
 ----------|
 -55555555-|
 -55555555-|
 -33333333-|

solo thing w. guitar 1 and 2

falling for you,falling for you...
|---------|
|---------|
|-----6-8-|
|-6-3-6-8-|
|-6-3-4-6-|
|-4-1-----|

end:
|--------------------------------------|
|--------------------------------------|
|--------------------------------------|
|-2xxxxx-4xxxxx-2xxxxx-4xxxxx-------6\-|
|-2xxxxx-4xxxxx-2xxxxx-4xxxxx-3h4-4-6\-|
|-0xxxxx-2xxxxx-0xxxxx-2xxxxx-------4\-|

thats it!
any comments/questions mail to vimz_@hotmail.com
Comments