Stuck Mojo - Rising Chords & Tabs

 

Rising Chords & Tabs

Stuck Mojo Chords & Tabs

Version: 1 Type: Tab 0 ratings
1 star 2 stars 3 stars 4 stars 5 stars
comments

Rising Tab

   
Rising
From: Stuck Mojo - Rising

h - hammer on
p - pull off
b - bend string up
r - release bend
/ - slide up
\ - slide down
v - vibrato (sometimes written as ~)
t - tap (with strumming hand)
x - muted, struck string

Tuning: Down a whole step then drop C. C G C F a D


Riff 1 Intro/Chorus
D|---------------------------------------|--5h6p5h6p5h6p5--------------|
A|---------------------------------------|-----------------------------|
F|---------------------------------------|-----------------------------|
C|---------------------------------------|-----------------------------|
G|-----/7p5h7--/7p5h7--/7p5h7--/7p5h7----|-----------------------------|
C|-----/7p5h7--/7p5h7--/7p5h7--/7p5h7----|-----------------------------|
                     "Rising!"              This is really a trill
                                            just pick the first 5 and hammer 
on & off.
                                            Only play this the first 3 
times.
Riff 2 Verses
D|---------------------------------------------------------------------|
A|---------------------------------------------------------------------|
F|---------------------------------------------------------------------|
C|--2-2----------------------------------------------------------------|
G|--0-0--2p0--3p0--5p0--3p0--------------------------------------------|
C|---------------------------------------------------------------------|
"Rising! Were so bright were blinding..." etc.

[ Tab from: http://www.guitartabs.cc/tabs/s/stuck_mojo/rising_tab.html ]
Riff 3
D|------------------|--------------------------------------------------|
A|------------------|--------------------------------------------------|
F|------------------|--------------------------------------------------|
C|--------------5-5-|--------------------------------------------------|
G|--7---5---0---3-3-|--------------------------------------------------|
C|--7---5---0-------|--------------------------------------------------|
"I'm not gonna let you let me die!..." etc.


Riff 4
D|----------------------------------|----------------------------------|
A|----------------------------------|----------------------------------|
F|----------------------------------|----------------------------------|
C|----------------------------------|----------------------------------|
G|--\5-3-0--\5-3-0--\5-3-0--\5-3-0--|--3-------------------------------|
C|--\5-3-0--\5-3-0--\5-3-0--\5-3-0--|------6--5--3~--------------------|
"Havn't you heard cream rises..."   "...Never gonna stop"(1st and 3rd time 
only)



Riff 5 Outro
D|--------|-------------------------------------------------------------|
A|--------|-------------------------------------------------------------|
F|--------|-------------------------------------------------------------|
C|--5--7--|----------------------------5--7-----------------------------|
G|--3--5--|--3--0-3-0-3-5-0--3--0-3-0--3--5-----------------------------|
C|--------|--3--0-3-0-3-5-0--3--0-3-0-----------------------------------|
"Rising!"


Order: (Best to listen to CD)
Riff 1----- 4x
Riff 2----- 4x
Riff 3----- 4x
Riff 4----- 4x
(Repeat order again)
Riff 1----- 4x
Bass Break (No guitar)
Riff 5----- ?X Fades


Comments