Stuck Mojo - Rising Chords & Tabs

 

Rising Chords & Tabs

Stuck Mojo Chords & Tabs

Version: 1 Type: Bass Tab 0 ratings
1 star 2 stars 3 stars 4 stars 5 stars
comments

Rising Bass Tab

   
Song: Rising
Artist: Stuck Mojo
Album: Rising
Tabbed by R. Camacho

Note: Stuck Mojo plays at a dropped C tuning.  It may be easier 
to play it with a 5 string bass, but I tabbed for 4 string using
 the dropped C tuning. (Drop E to C, A to G, D to C, G to F).  
All strings for tabbing will be listed at their dropped tunings.

 Chorus              (Play 4X)Before solo Gtr riff
F[----------------------------]-----------]
C[----------------------------]-----------]
G[----------------------------]-----------]
C[-7-5-7--7-5-7--7-5-7--7-5-7-]-XXXX-X-XX-]

 
F[---------------------------------------------]
C[---------------------------------------------]
G[----------3----------3----------3----------3-]
C[-00-7-5-0---00-7-5-0---00-7-5-0---00-7-5-0---]
 
 Verse 1.
F[------------------------------------]
C[------------------------------------]
G[----------------------------5-3-0---]
C[-5-3-0--5-3-0--5-3-0--5-3-0-------3-]

F[----------------------------](Play whole
C[----------------------------] verse 2X)
G[----------------------------]
C[-5-3-0--5-3-0--5-3-0--5-3-0-]

[ Tab from: http://www.guitartabs.cc/tabs/s/stuck_mojo/rising_btab.html ]
 Chorus              (Play 4X)Before solo Gtr riff
F[----------------------------]-----------]
C[----------------------------]-----------]
G[----------------------------]-----------]
C[-7-5-7--7-5-7--7-5-7--7-5-7-]-XXXX-X-XX-]

 
F[---------------------------------------------]
C[---------------------------------------------]
G[----------3----------3----------3----------3-]
C[-00-7-5-0---00-7-5-0---00-7-5-0---00-7-5-0---]
 
 Verse 2.
F[------------------------------------]
C[------------------------------------]
G[----------------------------5-3-0---]
C[-5-3-0--5-3-0--5-3-0--5-3-0-------3-]

F[----------------------------](Play whole
C[----------------------------] verse 2X)
G[----------------------------]
C[-5-3-0--5-3-0--5-3-0--5-3-0-]


Chorus                (Play 4X)Breakdown      (Play 2X)
F[----------------------------]-----------------------]---]
C[----------------------------]-----------------------]---]
G[----------------------------]-0-(0)-3-(3)-------3-5-]-0-]
C[-7-5-7--7-5-7--7-5-7--7-5-7-]-------------5-(5)-----]---]

 Outro         (Play til fade out)(Slight ring out
F[-------------------------------] on each note)
C[-------------------------------]
G[-3-----------------------------]
C[---0-3-0--3-0-3-5--0-3-0--3-0--]

Comments