Sts - Irgendwann Bleib I Dann Dort Chords & Tabs

 

Irgendwann Bleib I Dann Dort Chords & Tabs

Sts Chords & Tabs

Version: 2 Type: Tab 0 ratings
1 star 2 stars 3 stars 4 stars 5 stars
comments

Irgendwann Bleib I Dann Dort Tab

   
Titel: Irgendwann bleib i dann dort
Interpret: STS
geschrieben von: Gert Steinb?cker, 1985

Beschwerden und Verbesserungsvorschl?ge bitte an Mayersepp@gmx.de !!!


/ = slide up (aufferutschn)


    N.C.
1. Der letzte Sommer war sehr

  sch?n,                   i bin in irgendana Bucht dringlegn,

    G           Am      G
e---3----3--------------3-----3-------3---------------0-------|
h---0------0---1/3--1---0--------0-------0------1----------1--|
g------0-------------------0--------0-------0---2-------------|
d--------------2/4--2---------------------------2-------------|
A-------------------------------------------------------------|
E---3-------------------3-------------------------------------|


            De Sunn wia Feier auf der Haut,

    Am                                  G          Am       G
e-------------0------------0------------3----3--------------3-|
h---1--0--1-------1------------1--------0------0---1/3--1---0-|
g---2--0--2-----------2------------2-------0------------------|
d---2--0--2----------------------------------------2/4--2-----|
A-------------------------------------------------------------|
E---------------------------------------3-------------------3-|


    riachst as Wasser und nix is laut,           irgendwo in

                          Am
e----3-------3---------------0--------------------0-----------|
h-------0-------0---------1-----1---1--0--1-----------1-------|
g--0-------0-------0------2---------2--0--2---------------2---|
d-------------------------2---------2--0--2-------------------|
A-------------------------------------------------------------|
E-------------------------------------------------------------|


     Griechenland,   jede     Menge weisser     Sand,

                D              Am                 D
e--0----------------2----------------0------------------------|
h-----1---------3-------3------1--------1---------3-----------|
g--------2------2--------------2------------------2-----------|
d-------------------------------------------------------------|
A-------------------------------------------------------------|
E-------------------------------------------------------------|

  Auf meim R?ckn nur dei Hand

             Am            G           Am          G
e--2--------------0--------3----3------------------3----------|
h------3-----1--------1----0------0----1/3----1----0----------|
g------------2----------------0-------------------------------|
d--------------------------------------2/4----3---------------|
A-------------------------------------------------------------|
E--------------------------3-----------------------0----------|


2. Nach zwaa, drei Wochn hob i?s gsp?rt
   I hab des Lebensgf?hl dort inhaliert
   Die Gedankn drahn si um
   Was z?haus wichtig war is jetz ganz dumm

   Du sitzst bei am Olivnbaam
   Und du sp?hst di mit am Staan
   Es is so anders als dahaam


Refrain:

[ Tab from: http://www.guitartabs.cc/tabs/s/sts/irgendwann_bleib_i_dann_dort_tab_ver_2.html ]
   N.C.                     C
Und irgenwann bleib i dann dort,
                      D
loss alles liegn und stehn,
                          G     C   G7
geh vo dahaam f?r immer furt.
                         C
Da drauf gib i dir mei Wort
                     D
wia vui Jahr a no vagehn

Irgendwann bleib i

 dann dort
       G
e------3----3--------------3-----|
h------0------0---1/3--1---0-----|
g---------0----------------------|
d-----------------2/4--3---------|
A--------------------------------|
E------3-------------------0-----|


3. In unsrer Hektomatik-Welt
   Draht si alles nur um Macht und Geld
   Finanz und Bankn steign ma drauf
   Die Rechnung de geht sowieso nie auf

   Und irgendwann frogst di wieso,
   Qu?l i mi do so schrecklich o,
   und bin ned l?ngst scho waas Gott wo!


Solo  (1. Gitarre spielt Grundschema weiter)

e-------------------8--7-----------7--------------------------|
h-----------8--10---------10---8------------------------------|
g-----5/7-----------------------------------------------------|
d-------------------------------------------------------------|
A-------------------------------------------------------------|
E-------------------------------------------------------------|


e-----7h8---8--7---------------7------------------------------|
h-------------------10--8--10---------------------------------|
g----------------------------------9--------------------------|
d-------------------------------------------------------------|
A-------------------------------------------------------------|
E-------------------------------------------------------------|


e---7h8--8--7---------7---------7h8--8--7---------------7-----|
h--------------10--8------------------------10--8--10---------|
g----------------------------------------------------------9--|
d-------------------------------------------------------------|
A-------------------------------------------------------------|
E-------------------------------------------------------------|


e---7h8--8--7-------------------7h8-8-7-----------------------|
h---------------10-8-10---------------------10--8--10---------|
g-------------------------------------------------------------|
d-------------------------------------------------------------|
A-------------------------------------------------------------|
E-------------------------------------------------------------|

                             Am
e---7h8--8--7-------------------------------------------------|
h---------------8--10--8-----1/3---1--------------------------|
g-------------------------------------------------------------|
d----------------------------2/4---2--------------------------|
A-------------------------------------------------------------|
E-------------------------------------------------------------|


4. Aber no is? ned so weit,
   Noch was zu tun befiehlt die Eitelkeit
   Doch bevor der Herzinfarkt
   Mi mit 40 in die Windeln prackt,

   Lieg i scho irgendwo am Strand
   A Bottl Rotwein in der Hand
   Und steck die Fia? in weissn Sand


Mit besonderem Dank an Andreas Urban & Veronika Wimmer

Umgesetzt von Josef Mayer, "Da Moia Sepp s?im"


Februar 2002
Comments