Sts - Fuerstenfeld Chords & Tabs

 

Fuerstenfeld Chords & Tabs

Sts Chords & Tabs

Version: 1 Type: Bass Tab 0 ratings
1 star 2 stars 3 stars 4 stars 5 stars
comments

Fuerstenfeld Bass Tab

   
STS-Fürstenfeld 

Bass comes in at 2:23 with

                      
G|--------|
D|-5-4-2--|
A|--------|
E|--------|


Chorus:

  G             D 
G|-------------------------------------|
D|--------(2-4)-5---5-4-2-0------------|
A|-5----5---------5--------------------|
E|----5--------------------------------|
 I wui  wieder  hoim

  G             D 
G|-------------------------------------|
D|---------2-4--5---5-4-2-0------------|
A|-5----5---------5--------------------|
E|----5--------------------------------|
  Fühl mi do so allan

  G             D 
G|-------------------------------------|
D|---------2-4--5---5------------------|
A|-5----5---------5-------0-1-2--------|
E|----5-----------------3--------------|
 Brauch kei große Welt
    C       D       G
G|-------------------------------------|
D|------------------5------------------|
A|--3-------5----------5---------------|
E|-----3--------5----------------------|
 I will    hoim nach  Fürstenfeld


Verse:
   D       C      G
G|----------------------------------------------|
D|----------------5----5-4-2-0------------------|
A|--5------3---------5--------------------------|
E|-----5------3---------------------------------|
   D       C      G
G|----------------------------------------------|
D|----------------5----5-4-2-0------------------|
A|--5------3---------5--------------------------|
E|-----5------3---------------------------------|
   D       C      G 
G|----------------------------------------------|
D|----------------5----5------------------------|
A|--5------3---------5---------0-2--------------|
E|-----5------3-------------3-------------------|
[ Tab from: http://www.guitartabs.cc/tabs/s/sts/fuerstenfeld_btab.html ]
    C      D        G
G|----------------------------------------------|
D|------------------5---------------------------|
A|--3------5-----------5------------------------|
E|-----3------5---------------------------------|



Lyrics:

[G]Langsam find der [D]Dag sei End [C]und die Nacht [G]beginnt,
in der Kaertnerstrossen [Am]do singt einer "[C]Blowing in the [D]wind".
[G]Hot a grianes Roe[D]ckerl oa, [C]steht do ganz ver[G]loarn,
und der Steffel der schaut [D]obi, auf den [C]armen [D]steirer [G]Buam.

[G]Der hot wolln sei [D]Glueck probiern, [C]in der grossen fremden [D]Schtohd,
hot glaubt sei [Am]Musik bringt ihn ins [C]Rennbahn-Express-Titel[D]blatt.
[G]Aus der Traum, zer[D]platzt wie Seifen[C]blasen, nix is [G]bliam,
bis auf die boar [D]Schilling, Oeschis in seim [C]Gitarren[D]koffer [G]drin.

Verse:

[D]Wochen[C]lang steh [C]i scho [G]do, [D]Wochen[C]lang [C]plag i mi [G]a,
[D]i spui [C]mir die Finger [G]wund und [C]sing so[G]goar "Do kummt di
[G]Sunn".
[D]Doch es [C]isch zum narrisch [G]wearn, [D]koana [C]wui mi singa [G]hearn.
[D]Langsam [C]kriag i wirkli [G]gnua, [C]i frog [D]mi was i da [G]dua.

Chorus:

[D]I wui wieder [G]hoam, i [D]fuehl mi da so [G]aloan,
[D]Brauch koa grosse [G]Woeit, [C]i wui [D]hoam nach Fuertsten[G]feld.
{eoc}

Verse:

[D]In der [C]Zeitung do homs [G]geschriem, [D]do gibt's a [C]Szene, do muasch
[G]hin.
[D]Was se [C]wuin, des  solln se [G]schreim, [C]mir kann die [D]Szene gstohln
[G]bleim.
[D]Do gang i [C]gestern ins U[G]4, [D]fangt a [C]Dirndl an z'[G]ren mit mir,
[D]schwoarze [C]Lippen griane [G]Hoar, [C]da kannst ja [D]Angst kriagn, wirkli
[G]war.

Repeat Chorus!

Verse:

[D]Niemols [C]spui i mer in [G]Wien, [D]Wien hot [C]mi goarnet ver[G]dient,
[D]i spui [C]hoechstens no in [G]Graz, [C]sing in [D]Kirchen und Spi[G]tals.
[D]I brauch koan [C]Guertel, brauch koan [G]Ring,
[D]i wui [C]z'ruck hintern [G]Semmering.
[D]I brauch [C]bloss des bissel [G]Geld, [C]fuer die [D]Foart nach
Fuersten[G]feld.

Repeat Chorus!

Any Questions? Mail me: braining@hotmail.de
Comments