Strung Out - Reason To Believe Chords & Tabs

 

Reason To Believe Chords & Tabs

Strung Out Chords & Tabs

Version: 3 Type: Tab 0 ratings
1 star 2 stars 3 stars 4 stars 5 stars
comments

Reason To Believe Tab

SOT

Guitar Tab for Reason To BelieveReason To Believe


      Twisted By Design

  Words by Jim Cherry
  Music by Jim Cherry and Strung Out
  Copyright ?1998 - Strung Out


Intro Riff (0:02)


Rob:

d|-------12...-----|
A|--12-------------|
F|-----------------|
C|-----------------|
G|-----------------|
D|-----------------|


Jake & Rob:

d|---------------------------|-------------------|
A|-------------2-------------|-------------1...--|
F|-------------3-------------|-------------0...--|
C|-------2-----0-----0-----2-|-------2-----2...--|
G|-2---2-0-0-2---0-2---2-0---|-2---2-0-0-2-3...--|
D|-0-3-----------------------|-0-3---------------|


Verse Riff (0:20)

Jake & Rob:
					(2x)
d|------------------------------------------|
A|------------------------------------------|
F|------------------------------------------|
C|----------------7777----------------4444--|
G|-2222-5555-4444-5555-2222-5555-4444-2222--|
D|-0000-3333-2222------0000-3333-2222-------|
   .... .... .... .... .... .... .... ....


Interlude Riff (0:29)

Rob:					   Jake:
        							      (2x)
d|-0...------------------------12---|      d|----------------------------|
A|-0...------------------------15b--|      A|----------------------------|
F|-0...-----------------------------|      F|----------------------------|
C|----------------------------------|      C|----------------------------|
G|----------------------------------|      G|-----2-0---0-----2-0---0-2--|
D|----------------------------------|      D|-0-3-----3---0-3-----3------|


Verse Riff (0:34)


Chorus Riff (0:43)

Jake & Rob:

d|-------------------------------------------------------------|
A|-------------------------------------------------------------|
F|-------------------------------------------------------------|
C|-2--5--4-----4--2-----5-----2--5--4----------------4-4-------|
G|-0--3--2--5--2--0--3--3--2--0--3--2--5-5--3-3-3-3--2-2-55-3--|
D|----------3--------1-----0-----------3-3--1-1-1-1------33-1--|
							 .. .

Interlude Riff #2 (0:54)

Rob:					Jake:

d|------------------------------|       d|----------------------------------|
A|------------------------------|       A|----------------------------------|
F|-----3--0...--------3--0...---|         F|--------------------------------|
C|------------------------------|    C|-------------------------------------|
G|-2------------22--------------|    G|-2...---------22...------------------|
D|-0------------00--------------|    D|-0...---------00...------------------|
							.

Verse Riff (0:57)


Bridge Riff (1:07)

Jake & Rob:
[ Tab from: http://www.guitartabs.cc/tabs/s/strung_out/reason_to_believe_tab_ver_3.html ]
d|--------------------------------------------------------------------------------|
A|--------------------------------------------------------------------------------|
F|--------------------------------------------------------------------------------|
C|--------------------------------------------------------------------------------|
G|-7-75-7-75--7-75-7-3--22222222-22222222--7-75-7-75--7-75-7-7-9-97-9-97-9-97-99--|
D|-5-53-5-53--5-53-5-1--00000000-00000000--5-53-5-53--5-53-5-5-7-75-7-75-7-75-77--|


Rob's Solo (1:16)

-wah pedal-

d|-------------12-14-12----12-------------------------------------------------------------12---|
A|-15...--15bv----------15----15-12----12-------------------------------------------12-15------|
F|----------------------------------14----14-12---12-------------12-14-14b-14-12-14------------|
C|-12...----------------------------------------14---14-13-12-14-------------------------------|
G|---------------------------------------------------------------------------------------------|
D|---------------------------------------------------------------------------------------------|

d|-12h15p12----12-17b-17b-17br-17-15-17br-17-17/-|
A|----------15-----------------------------------|
F|-----------------------------------------------|
C|-----------------------------------------------|
G|-----------------------------------------------|
D|-----------------------------------------------|

Guitar Solo Riff (1:16)

Jake:

d|------------------------------------------------------------------|
A|------------------------------------------------------------------|
F|------------------------------------------------------------------|
C|-9-12--11-7---------9----12-9--9-12-11-7--------------------------|
G|-7-10--9--5-7-5-----7-10-10-9--7-10-9--5-101010109999-0------2...-|
D|----------------7-5---8-----7------------8-8-8-8-7777---3-2-00...-|
							      .

Breakdown Riff (1:26)

Rob:
                          (1:36) <--------------------|Start of N. Harmonics
d|---------------14\--/14-----------------------------|
A|---------------12\--/12-----------------------12*---|
F|-12trill-14----12\--/12-----------------------12*---|
C|----------------------------------------------12*---|
G|----------------------------------------------------|
D|----------------------------------------------------|

Jake (Starts w/ D chord ringing out):
                          (1:36) <--------------------|Start Of N. Harmonics
d|----------------------------------------------------|
A|----------------------------------------------12*---|
F|----------------------------------------------12*---|
C|---------------14\--/14-----------------------12*---|
G|---------------14\--/14-----------------------------|
D|---------------12\--/12-----------------------------|

(1:40):
Jake & Rob (w/ wah pedal):

		     (4x)
d|----------------------|
A|----------------------|
F|-99--99--99--99-9999--|
C|-xx--xx--xx--xx-xxxx--|
G|-77--77--77--77-7777--|
D|----------------------|


Interlude Riff #3 (1:51)

Jake & Rob:
				(4x)
d|---------------------------------|
A|---------------------------------|
F|---------------------------------|
C|-----------------------------2---|
G|-----2-0---0-2-0---0-2-0---2-----|
D|-0-3-----3-------3-------3-------|

Chorus Riff (2:00)
Comments