Strung Out - Mind Of My Own Chords & Tabs

 

Mind Of My Own Chords & Tabs

Strung Out Chords & Tabs

Version: 1 Type: Tab 0 ratings
1 star 2 stars 3 stars 4 stars 5 stars
comments

Mind Of My Own Tab

   
Strung Out - Mind Of My Own

Standard tuning

~~ = slide

Intro and first verse and distorted
E]------------------------------------------------------
B]------------------------------------------------------
G]------------------------------------------------------
D]-5-5-5-4-4---4-4-4-2-2---5-5-5-4-4--7-7-7-7-~~9-9-9-9-
A]-2-2-2-2-2---5-5-5-0-0---2-2-2-2-2--5-5-5-5-~~7-7-7-7-
E]------------------------------------------------------

                                   E]-------------------
                       the second  B]-------------------
                     time play thatG]-------------------
                      instead of   D]-------------------
                      the last two A]-5-5-5-5-~~7-7-7-7-
                      riffs above  E]-3-3-3-3-~~5-5-5-5-
[ Tab from: http://www.guitartabs.cc/tabs/s/strung_out/mind_of_my_own_tab.html ]
2 Verse: distorted
E]------------------------------------------------------------------------
B]-------------------------------------------------------------------------
G]-------------------------------------------------------------------------
D]-----------------12-12-12-12-12-12-12-12---------------------------------
A]-9-9-9-9-9-9-9-9-10-10-10-10-10-10-10-10-9-9-9-9-9-9-9-9-5-5-5-5-7-7-7-7-
E]-7-7-7-7-7-7-7-7-------------------------7-7-7-7-7-7-7-7-3-3-3-3-5-5-5-5-
PM_________________________________________________________________________

E]------------------------------------------------------------------------
B]--------------------------------------------------------------------------
G]-------------------------------------------------------------------------
D]-----------------12-12-12-12-12-12-12-12--------------------------------
A]-9-9-9-9-9-9-9-9-10-10-10-10-10-10-10-10-9-9-9-9-9-9-9-9-5-5-5-5-7-7-7-7-
E]-7-7-7-7-7-7-7-7-------------------------7-7-7-7-7-7-7-7-3-3-3-3-5-5-5-5-
PM________________________________________|
Comments