Strung Out - Mind Of My Own Chords & Tabs

 

Mind Of My Own Chords & Tabs

Strung Out Chords & Tabs

Version: 2 Type: Bass Tab 0 ratings
1 star 2 stars 3 stars 4 stars 5 stars
comments

Mind Of My Own Bass Tab

Song: Mind Of My Own
Band: Strung Out
Album: Twisted By Design

Tabbed by: Shaun McDonald    diesel_weasel@mailcity.com

Tune down one full step.  This may be played on a 5-string.
If you play on a 5-string, you may not want to tune down.

\ slide
X fretted
. pause

Intro:

*come in with drums*
F|----------------|----------------|
C|----------------|----------------|
G|----------------|----------------|
D|3-3-3-3-3-3-3-3-|5-5-5-5-5-5-5-5-|

F|----------------|----------------|----------------|----------------|
C|----------------|----------------|----------------|----------------|
G|2-2-2-2-2-2-2-2-|5-5-5-0-0-0-0-0-|2-2-2-2-2-2-2-2-|5-5-5-5\7-7-7-7-|
D|----------------|----------------|----------------|----------------|

F|----------------|----------------|----------------|----------------|
C|----------------|----------------|----------------|----------------|
G|2-2-2-2-2-2-2-2-|5-5-5-0-0-0-0-0-|----------------|----------------|
D|----------------|----------------|3-3-3-3-3-3-3-3-|5-5-5-5-5-5-5-5-|


Verse:

F|----------------|----------------|----------------|----------------|
C|----------------|----------------|----------------|----------------|
G|2-2-2-2-2-2-2-2-|5-5-5-0-0-0-0-0-|2-2-2-2-2-2-2-2-|----------------|
D|----------------|----------------|----------------|3-3-3-3\5-5-5-5-|

F|----------------|----------------|----------------|----------------|
C|----------------|----------------|----------------|----------------|
G|2-2-2-2-2-2-2-2-|5-5-5-0-0-0-0-0-|----------------|----------------|
D|----------------|----------------|3-3-3-3-3-3-3-3-|5-5-5-5-5-5-5-5-|


Chorus 1:

F|----------------|----------------|----------------|----------------|
C|----------------|----------------|----------------|----------------|
G|2---X-2-2---X-2-|5---X-5---------|----------------|----------------|
D|----------------|--------5---X-5-|2-2-2-2-2-2-2-2-|3-3-3-5-5-5-5-5-|

F|----------------|----------------|----------------|----------------|
C|----------------|----------------|----------------|----------------|
G|2---X-2---------|5---X-5---------|----------------|----------------|
D|--------2---X-2-|--------0-0-0-0-|3-3-3-3-3-3-3-3-|2.--------------|

Intro

Verse

Bridge:
[ Tab from: http://www.guitartabs.cc/tabs/s/strung_out/mind_of_my_own_btab_ver_2.html ]
F|----------------|----------------|----------------|----------------|
C|--------5---5-5-|--------2---2-2-|----------------|----------------|
G|2---2-2---------|5---5-5---------|--------5---5-5-|--------2-2-2-2-|
D|----------------|----------------|3---3-3---------|5---5-5---------|

F|----------------|----------------|----------------|----------------|
C|--------5---5-5-|--------2---2-2-|5-5-5-5-5-5-5-5-|4-4-4-4-4-4-4-4-|
G|2---2-2---------|2---2-2---------|----------------|----------------|
D|----------------|----------------|----------------|----------------|

F|----------------|----------------|----------------|----------------|
C|----------------|----------------|----------------|----------------|
G|2-2-2-2-2-2-2-2-|----------------|2-2-2-2-2-2-2-2-|----------------|
D|----------------|3-3-3-3-3-3-3-3-|----------------|3-3-3-3-5-5-5-5-|

F|----------------|----------------|----------------|----------------|
C|----------------|----------------|----------------|----------------|
G|2-2-2-2-2-2-2-2-|----------------|----------------|----------------|
D|----------------|3-3-3-3-3-3-3-3-|5-5-5-5-5-5-5-5-|2-2-2-2-2-2-2-2-|

Guitat Solo: Play verse 2x then:

F|----------------|----------------|
C|----------------|----------------|
G|----------------|----------------|
D|3-3-3-3-3-3-3-3-|2.--------------|

Verse 3: (2x)

F|----------------|----------------|----------------|----------------|
C|----------------|----------------|----------------|----------------|
G|2---2-2-2---2-2-|5---5-----------|2---2-2-2---2-2-|----------------|
D|----------------|------5-5---5-5-|----------------|3---3-3\5---5-5-|

F|----------------|----------------|----------------|----------------|
C|----------------|----------------|----------------|----------------|
G|2---2-2-2---2-2-|5---5-----------|----------------|----------------|
D|----------------|------5-5---5-5-|3-3-3-3-3-3-3-3-|2-2-2-2-2-2-2-2-|

Outro:

F|----------------|----------------|----------------|----------------|
C|----------------|----------------|----------------|----------------|
G|2---2-2-2---2-2-|5---5-----------|2---2-2-2---2-2-|5---5-5\7---7-7-|
D|----------------|------5-5---5-5-|----------------|----------------|

F|----------------|----------------|----------------|----------------|
C|----------------|----------------|----------------|----------------|
G|2---2-2-2---2-2-|5---5-----------|----------------|----------------|
D|----------------|------5-5---5-5-|3-3-3-3-3-3-3-3-|2.--------------|
Comments