Strung Out - Kids Chords & Tabs

 

Kids Chords & Tabs

Strung Out Chords & Tabs

Version: 1 Type: Bass Tab 0 ratings
1 star 2 stars 3 stars 4 stars 5 stars
comments

Kids Bass Tab

   
Tuning-C,G,C,F

                                                             (4x)
F----------|-------------------------------------------------|
C----------|-------------------------------------------------|
G----------|-------------------------------------------------|
C--8-8-10\\-|--8-8--10\\--8-10\\-8-10\\-8-10\\-8-10\\-8-10\\-|

F------------|
C------------|
G------------|
C8-8---10r--|
                                   (2x)
F---------------------------------|
C---------------------------------|
G---------------------------------|
C33----33----3/2-00----11----11--|

                             (2x)
F---------------------------|
C---------------------------|
G-----6>------------6>------|
C-3>------8>----3>------8>--|

Chorus:
F-------3x--------|-------------------|
C---5>------------|----5>-------------|
G------6>--3>--5>-|-------6>--3>--5>--|
C-----------------|-3-----------------|

F---------------------------------------|
C---------------------------------------|
G------------776644-----------7763---|
C-333333---------------3333---------|
[ Tab from: http://www.guitartabs.cc/tabs/s/strung_out/kids_btab.html ]
Verse 2:
F-----------------------------------------|
C------------------------------8888787r--|
G----6>-----------6>----------------------|
C-3>----7>----3>------8>----3>------------|

Chorus 2:
F--------------------------------------------------------|
C5>-------------5>------------55---5---77---7---7-6-5---|
G----6>--3>--5>------6>--3>--3----3---5----5---5-------7-|
C--------------------------------------------------------|
                    2x
F------------------|
C5>---------------|
G----6>---3>---5>--|
C------------------|

Bridge:
F--------------------------------------|
C--------------------------------------|
G6>---3/5-----------------------------|
C----------6/3-33-3-3-3-33-33-3-3-3-33-|

F-----------------------------------------|
C-----8-----------------------------------|
G-6>----6-3/5-----------------------------|
C-------------6/3-33-3-3-3-33-33-3-3-3-33-|

F--------------------------------|
C--------------------------------|
G6>--5>-------------------------|
C--------33-3-3-3-33-33-3-3-3-33-|

F--------------------------------|
C--------------------------------|
G-6>--5>-------------------------|
C--------6/333333-333-3333-333|

Chorus 3: Same as Chorus 2

F----------------------------|
C5>-------------------------|
G----6>---3>--5555555--------|
C---------------------6663--|

Outro:
F---------|
C---------|
G---------|
C-3-13\ -|
Comments