Strung Out - Blueprint Of The Fall Chords & Tabs

 

Blueprint Of The Fall Chords & Tabs

Strung Out Chords & Tabs

Version: 1 Type: Tab 0 ratings
1 star 2 stars 3 stars 4 stars 5 stars
comments

Blueprint Of The Fall Tab

* Artist: Strung Out
* Song Title: Blueprint of the Fall (Solo)
* Album: Exile in Oblivion

Note: Drop to full D tuning 


d|-------------------------------------------------------------------------------|
A|-------------------------------------------------------------------------------|
F|-\11--------12-14b15-14p12-14p12-----12----12h14p12p0---11h12p11p0---9h11p9p0--|
C|------14--14-----------------------14----14------------------------------------|
G|-------------------------------------------------------------------------------|
D|-------------------------------------------------------------------------------|

d|----------------------------------------------------------------------------|
A|----------------------------------------------------------------------------|
F|-11h12p11p0---12h14p12p0---11h12p11p0---12h14p12p0---14h16p14p0---14\16-14~-|
C|----------------------------------------------------------------------------|
G|----------------------------------------------------------------------------|
D|----------------------------------------------------------------------------|

d|-17b19--15b17r15-14-15------15----15-14-15----15----15----15---------|
A|------------------------15-----15----------15----13----13----12------|
F|------------------------------------------------------------------14-|
C|---------------------------------------------------------------------|
G|---------------------------------------------------------------------|
D|---------------------------------------------------------------------|

[ Tab from: http://www.guitartabs.cc/tabs/s/strung_out/blueprint_of_the_fall_tab.html ]
d|----------------------------------------------------------------|
A|-12h13h15-13p12h13p12-/10-12b13r12-p10-12-10p8-10p8/7-8p7-------|
F|----------------------------------------------------------9/7---|
C|----------------------------------------------------------------|
G|----------------------------------------------------------------|
D|----------------------------------------------------------------|

d|-----------------------------------------------------------------------|
A|-7h8p7h8--10p8p7-h8-p7h8-10-p8-8--10p8h10-/12p10\8h10--10-10-\12p10h12-|
F|-----------------------------------------------------------------------|
C|-----------------------------------------------------------------------|
G|-----------------------------------------------------------------------|
D|-----------------------------------------------------------------------|

d|-----------------------------------------------------------------|
A|-13-p10h12--10h12--\13h15-p13p12-h13-p12/10--h12-/10b------------|
F|-----------------------------------------------------------------|
C|-----------------------------------------------------------------|
G|-----------------------------------------------------------------|
D|-----------------------------------------------------------------|

d|------------------------------------------------------------|
A|-10h12p10p0--8h10p8p0--7h8p7p0--8h10p8p0--7h8p7p0--5h7p5p0--|
F|------------------------------------------------------------|
C|------------------------------------------------------------|
G|------------------------------------------------------------|
D|------------------------------------------------------------|

d|------------------------------------------------|
A|-10h12p10p0--8h10p8p0--7h8p7p0--7~--------------|
F|------------------------------------------------|
C|------------------------------------------------|
G|------------------------------------------------|
D|------------------------------------------------|
Comments