Strung Out - Betrayal Chords & Tabs

 

Betrayal Chords & Tabs

Strung Out Chords & Tabs

Version: 1 Type: Bass Tab 0 ratings
1 star 2 stars 3 stars 4 stars 5 stars
comments

Betrayal Bass Tab

   
tuning-d,g,c,f

Intro (5x)
F-------------------------------------------------------------------|
C----4-5-4/5/4------4-5-4/5/4-------4-5---4/5/4--------7--99/7-9-|
G7--------------7-5-------------5-3----------------7-5-------------|
D-------------------------------------------------------------------|

Interlude (2x)
F--------------------------------------------------|
C--------------------------------------------------|
G-7-7777-77--5-5555-55----3-3333-33----5-5555-55--|
D--------------------------------------------------|
[ Tab from: http://www.guitartabs.cc/tabs/s/strung_out/betrayal_btab.html ]
Chorus (2x)
F--------------------------------------------------|
C--------------------------------------3-3-2-2-----|
G-0-3-5-6-5-3-0-3-5-6-5-3-0-3-5-6-5-3--------------|
D--------------------------------------------------|

Verse (2x)
F--------------------------------------------------|
C---------------------------555555-----------------|
G-0-000000000-3-000000000-----------666666---------|
D--------------------------------------------------|

Chorus 2x
Verse 2x
Chorus 2x

F--------|
C--------|
G---7>---|
D--------|

Interlude 4x
Intro 2x
Verse 2x

Bass Solo   x8     x1
F-------------|---|
C-------------|---|
G-------------|---|
D0-3-5--6-5-3|-2-|

Chorus 2x

Ending
F-------------|
C-------------|
G777---57~--|
D-------------|
Comments