Strung Out - Alone Chords & Tabs

 

Alone Chords & Tabs

Strung Out Chords & Tabs

Version: 1 Type: Tab 0 ratings
1 star 2 stars 3 stars 4 stars 5 stars
comments

Alone Tab

:----------------------------:
:----------------------------:                                            
:----------------------------:
:-9-9--7-7-7-7--5-5--7-7-7-7-:
:-7-7--5-5-5-5--3-3--5-5-5-5-:
:----------------------------:

:-----------------------------------------------------------------:
:-----------------------------------------------------------------:
:-----------------------------------------------------------------:
:-------------------------------------------------------5-5-5-5-5-:
:-9--7--5--7--9-9--7-7-7-7--5-5--7-7-7-7--9-9--7-7-7-7--3-3-3-3-3-:      
:-7--5--3--5--7-7--5-5-5-5--3-3--5-5-5-5--7-7--5-5-5-5------------:

:-----------------------------------------------------------------:
:-----------------------------------------------------------------:
:-----------------------------------------------------------------:
:-----------------------------------------------------------------:
:-9-9-7-7-7-7-5-5-7-7-7-7-9-9-7-7-7-7-5-5-7-7-7-7-9-9-7-7-7-7-5-5-:
:-7-7-5-5-5-5-3-3-5-5-5-5-7-7-5-5-5-5-3-3-5-5-5-5-7-7-5-5-5-5-3-3-:

:--------------------------------:
:--------------------------------:
:--------------------------------:
:------------------------5-5-5-5-:
:-7-7-7-7--9-9--7-7-7-7--3-3-3-3-:
:-5-5-5-5--7-7--5-5-5-5----------:

:------------------------------------------------------------------------:
:------------------------------------------------------------------------:
:------------------------------------------------------------------------:
:-------------3---------------3-3-3--5-5-5----------------3--8-8-8--7-7-7:
:5-5-5--2-2-2-1-5-5-5--2-2-2--1-1-1--3-3-3--5-5-5--2-2-2--1--6-6-6--5-5-5:
:3-3-3--0-0-0---3-3-3--0-0-0----------------3-3-3--0-0-0-----------------:
[ Tab from: http://www.guitartabs.cc/tabs/s/strung_out/alone_tab.html ]
:------------------------------------------------------------------------:
:------------------------------------------------------------------------:
:------------------------------------------------------------------------:
:------------------------------------------------------------------------:
:-8-8-8--7-7--5-5-5--3-3--8-8-8--7-7--5-5-5--3-3--8-8-8--7-7--5-5-5--3-3-:
:-6-6-6--5-5--3-3-3--1-1--6-6-6--5-5--3-3-3--1-1--6-6-6--5-5--3-3-3--1-1-:

:---------------------:
:---------------------:
:---------------------:
:-------------5-5-5-5-:
:-8-8-8--7-7--3-3-3-3-:
:-6-6-6--5-5----------:

Solo:
:------------------------------------------------------------------------:
:------------------------------------------------------------------------:
:---------------------------------------8--------------------------------:
:-------6--6-6-6-8-6-------------10-8----------8-10-8---------6-8-6------:
:8-8-10--------------10-10-10-8-------10--------------10-8-10-------8-6-8:
:------------------------------------------------------------------------:

:------------------------------------------------------------------------:
:----------------------10-10---------------------------------------------:
:----------------------10-10-8----------------8-10--8-8-11-8-10-8----8-10:
:------------------------------10-8----8-10-8---------------------10-----:
:-10-10-10-10-10-8-10---------------10-----------------------------------:
:------------------------------------------------------------------------:

:----------------------------------------------------------:
:----------------------------------------------------------:
:-----------------------------------------------------8-10-:
:-8-----------------------------------8----10-10-10-8------:
:---10-8--------8-10-------8-10---------10-----------------:
:---------10-10------10-10------10-10----------------------:

:-------------------------------------------------------------:
:-------------------------------------------------------------:
:-------------------------------------------------------------:
:-------------------------------------------------------------:
:-8-8-8-8--7--5--7--8-8-8-8--7--5--7--8-8-8-8--7--5--7--5-5-5-:
:-6-6-6-6--5--3--5--6-6-6-6--5--3--5--6-6-6-6--5--3--5--3-3-3-:
Comments