Strong Bad - Trogdor Chords & Tabs

 

Trogdor Chords & Tabs

Strong Bad Chords & Tabs

Version: 1 Type: Tab 0 ratings
1 star 2 stars 3 stars 4 stars 5 stars
comments

Trogdor Tab

------TAB BY STICKY SAND------
hey people who want to learn Trogdor, this is my first tab. I found this song at
www.homestarrunner.com and its mad. I was really bored and liked the song so i tabbed it.
This tab is dedicated to Sketch, for he was on msn when i was tabbing trogdor, thanx for
the help sketch... it means alot to me. Oh and also to colin and jazz for introducing me
to Homestar runner. Thanx guys.

CHORUS

E|------------------------------------------------|
B|------------------------------------------------|
G|-------2---------------------2------------------|
D|-2--2--2----2--2--5----2--2--2--2--5--2--4--5---|  x 2
A|-2--2--0----2--2--5----2--2--0--2--5--2--4--5---|
E|-0--0-------0--0--3----0--0-----0--3--0--2--3---|
   TROOOOGDOOOOOOOOOOOOOOORRRRR!!!!!


VERSE

E|------------------------------------------------------|
B|------------------------------------------------------|
G|------------------------------------------------------|
D|-------7--------5--------7--------5--------7--7--7--7-| x1
A|-------7--------5--------7--------5--------7--7--7--7-|
E|-0--0--5--0--0--3--0--0--5--0--0--3--0--0--5--5--5--5-|
   Trogdor was a man...

E|---------------------------------------------------|
B|---------------------------------------------------|
G|---------------------------------------------------|
D|-------7--------5--------7--------5--------7--7--7-| x3
A|-------7--------5--------7--------5--------7--7--7-|
E|-0--0--5--0--0--3--0--0--5--0--0--3--0--0--5--5--5-|
   1.Maybe he was a DRAGON-man...
   2.Uh, maybe he was just a dragon...
   3.eh,... but he was stil-


CHORUS
[ Tab from: http://www.guitartabs.cc/tabs/s/strong_bad/trogdor_tab.html ]
E|------------------------------------------------|
B|------------------------------------------------|
G|-------2---------------------2------------------|
D|-2--2--2----2--2--5----2--2--2--2--5--2--4--5---|  x 2
A|-2--2--0----2--2--5----2--2--0--2--5--2--4--5---|
E|-0--0-------0--0--3----0--0-----0--3--0--2--3---|
   TROOOOGDOOOOOOOOOOOOOOORRRRR!!!!!


VERSE BACK UP

E|--------------------------------------|
B|--------------------------------3--3--|
G|--2--0-----0--------2--0--2--0--------| x4
D|--------3-----3--0--------------------|
A|--------------------------------------|
E|--------------------------------------|


PRE-CHORUS

E|------------------------------------|
B|------------------------------------|
G|------------------------------------|
D|--2--4--5--2--4--5--2--4--5--5--5---| x1
A|--2--4--5--2--4--5--2--4--5--5--5---|
E|--0--2--3--0--2--3--0--2--3--3--3---|
  Burninating the countryside


E|----------------------------------------|
B|----------------------------------------|
G|----------------------------------------|
D|--2--4--5--2--4--5--2--4--5--2--4--5--5-| x3
A|--2--4--5--2--4--5--2--4--5--2--4--5--5-|
E|--0--2--3--0--2--3--0--2--3--0--2--3--3-|
  Burninating the peasants, burninating all the people in their-

CHORUS

E|------------------------------------------------|
B|------------------------------------------------|
G|-------2---------------------2------------------|
D|-2--2--2----2--2--5----2--2--2--2--5--2--4--5---|  x 2
A|-2--2--0----2--2--5----2--2--0--2--5--2--4--5---|
E|-0--0-------0--0--3----0--0-----0--3--0--2--3---|
   THATCH-ROOF COTTAGEEEEES!!!!

END

AND THE TROGDOR COMES IN THE NIIIGHT!!!!!!


thanx peeps... and im out!!!
Comments