Strokes - You Talk Way Too Much Chords & Tabs

 

You Talk Way Too Much Chords & Tabs

Strokes Chords & Tabs

Version: 2 Type: Tab 0 ratings
1 star 2 stars 3 stars 4 stars 5 stars
comments

You Talk Way Too Much Tab

   
YOU TALK WAY TOO MUCH
Room on Fire-The Strokes
Intro-Guitar 2

E----------------------------------------------|
B----------------------------------------------|
G------------------------6-6-6---9--9--9--9----|
D--6-6-6---9--9--9--9----7-7-7--10-10-10-10----|
A--7-7-7--10-10-10-10----7-7-7--10-10-10-10----|
E--7-7-7--10-10-10-10--------------------------|

Intro-Guitar 1(corresponds with Guitar 2's chords)

E----------------------------------------------|
B----------------------------------------------|
G----------------------------------------------|
D------------------------11~~~~~~14b~~~~~~~~~--|
A--11~~~~~~14~~~~~~~~--------------------------|
E----------------------------------------------|

Verse- Guitar 1

E--------------------------------------------------------------------------|
B--------------------------------------------------------------------------|
G--------------------------------------------------------------------------|
D--13---11----13-11-13-11-11---11----11----11--------LISTEN TO TIMING------|
A---------------------------------14----14----14---------------------------|
E--------------------------------------------------------------------------|

Verse-Guitar 2

E---------------------------------|
B---------------------------------|
G---------------------------------|
D--7----------2-------------------|
A--5--x16-----2--x16--------------|
E--5----------0-------------------|

Interlude

E------------------|
B------------------|
G--1---------------|
D--2--x30----------|
A--2---------------|
E------------------|

Chorus-Guitar 2

E-------------------------------------------------------------|
B-------------------------------------------------------------|
G------------------------------6------9------6------8---------|
D--6------9------6------7------7--x8--7--x8--7--x8--9--x8-----|
A--7--x8--9--x8--7--x8--7--x8--7------0------7------9---------|
E--7------7------7------5-------------------------------------|

Chorus-Guitar 1(Each part is played with each second chord hit by Guitar 2)
[ Tab from: http://www.guitartabs.cc/tabs/s/strokes/you_talk_way_too_much_tab_ver_2.html ]
E-------------------------------------------------------------|
B-------------------------------------------------------------|
G-------------------------------------------------------------|
D---------13~~~~~~--13~~~~s11---13~~~~s11---13~~~~s11---------|
A-------------------------------------------------------------|
E-------------------------------------------------------------|


Solo-Guitar 1

E--12-11-9--12-11-9--12-11-9--14-12-11-9-----|
B--------------------------------------------|
G--------------------------------------------|
D--------------------------------------------|
A--------------------------------------------|
E--------------------------------------------|

E--16-16-12-14-12-16-16-12-14---16-16-12-14-12-16-16-12-14----|
B-------------------------------------------------------------|
G-------------------------------------------------------------|
D-------------------------------------------------------------|
A-------------------------------------------------------------|
E-------------------------------------------------------------|

Solo-Guitar 2-Played in background of Guitar 1(hard to hear)

E-------------------------------------------------------------|
B-------------------------------------------------------------|
G-------------------------------------------------------------|
D--13-~~~~11~~~~~13~~~~~11~~~~~~11~~~~~~14~~~~~11~~~~~14~~~~~-|
A-------------------------------------------------------------|
E-------------------------------------------------------------|




GUITAR 1

INTRO     (x4)
VERSE     (x4) 
INTERLUDE (x0)
CHORUS    (x1)
SOLO      (x2)
VERSE     (x4)
INTERLUDE (x0)
CHORUS    (x2)
INTRO     (x4)

GUITAR 2

INTRO     (x4)
VERSE     (x4)
INTERLUDE (x1)
CHORUS    (x1)
SOLO      (x2)
VERSE     (x4)
INTERLUDE (x1)
CHORUS    (x2)-Note:(The first time you play the chorus play the las
chord  (F# chord) eight more times than usual, for a total of sixteen times.)
INTRO     (x4)

END WITH E--------|
         B--------|
         G--------|
         D-6------|
         A-7-HOLD-|
         E-7------|
Comments