Strokes - When It Started Chords & Tabs

 

When It Started Chords & Tabs

Strokes Chords & Tabs

Version: 1 Type: Bass Tab 0 ratings
1 star 2 stars 3 stars 4 stars 5 stars
comments

When It Started Bass Tab

   
-------------------------------------------------------------------------------
			     SONG NAME - Band Name
-------------------------------------------------------------------------------

Tabbed By : AvErAgLyCrAzY
e-mail: Pjaic2003@yahoo.com

Tuning:(EADG)



(Intro)



G|55555-5---5---5-------------------------------------------------||
D|----------------------------------------------------------------||
A|----------------------------------------------------------------||
E|----------------------------------------------------------------||



(Verse)



G|99-77-5---9-5-0-10-------99-77-5---555--------------------------||
D|-------------------10-------------------------------------------||
A|----------------------------------------------------------------||
E|----------------------------------------------------------------||



G|5s10-10-10-10-10---0-0-0-0--------------------------------------||
D|----------------------------------------------------------------||
A|----------------------------------------------------------------||
E|----------------------------------------------------------------||



(Intro) 



G|99-77-5---9-5-0-10------99-77-5---555---------------------------||
D|-------------------10-------------------------------------------||
A|----------------------------------------------------------------||
E|----------------------------------------------------------------||



G|5s10-10-10-10-10---7-0-5-4--------------------------------------||
D|----------------------------------------------------------------||
A|----------------------------------------------------------------||
E|----------------------------------------------------------------||



(Intro)



G|99-77-5---555---99-77-5---9-5-0-9-14-12-9---10-10-10-10-0-0-0-0-||
D|----------------------------------------------------------------||
A|----------------------------------------------------------------||
E|----------------------------------------------------------------||



(Chorus)



G|10-10-10-10-----||
D|----------------||
A|----------------|| 8x
E|----------------||



G|5-5-5-5---------||
D|----------------||
A|----------------|| 8x
E|----------------||


[ Tab from: http://www.guitartabs.cc/tabs/s/strokes/when_it_started_btab.html ]
G|14-14-14-14-14(2x)-12-12-12-12-12(2x)-10-10-10-10-10(2x)--------||
D|----------------------------------------------------------------||
A|----------------------------------------------------------------||
E|----------------------------------------------------------------||



G|7-7-7-7-7(2x)-------------------||
D|--------------------------------||
A|--------------------------------||
E|--------------------------------||



G|5-5-5-5-5-------||
D|----------------||
A|----------------|| 8x
E|----------------||



(Solo Fill)



G|----------------------------------------------------------------||
D|----------------5555555555555555--------------------------------||
A|5555555555555555------------------------------------------------|| 4x
E|----------------------------------------------------------------||


(Verse2)



G|99-77-5---9-5-0-10------99-77-5---555---------------------------||
D|-------------------10-------------------------------------------||
A|----------------------------------------------------------------||
E|----------------------------------------------------------------||



G|5s10-10-10-10-10---7-0-5-4--------------------------------------||
D|----------------------------------------------------------------||
A|----------------------------------------------------------------||
E|----------------------------------------------------------------||



(Intro)



G|99-77-5---555---99-77-5---9-5-0-9-14-12-9---10-10-10-10-0-0-0-0-||
D|----------------------------------------------------------------||
A|----------------------------------------------------------------||
E|----------------------------------------------------------------||



(Chorus2)


(Outro)



G|----------------------------------------------------------------||
D|5555555555555555------------------------------------------------||
A|----------------------------------------------------------------||
E|----------------------------------------------------------------||



G|99-77-5---9-5-0-10-------99-77-5---555---5--5-------------------||
D|-------------------10-------------------------------------------||
A|----------------------------------------------------------------||
E|----------------------------------------------------------------||
  PM...............................



(End)

This is the very first bass tab for this song. I'm pretty sure that it
is 100% accurate. If you have any suggestions or any comments please
feel free to e-mail me at Pjaic2003@yahoo.com

Thanx.




| /  slide up
| \  slide down
| h  hammer-on
| p  pull-off
| ~  vibrato
| +  harmonic
| x  Mute note
===============================================================================
Comments