Strokes - What Ever Happened Chords & Tabs

 

What Ever Happened Chords & Tabs

Strokes Chords & Tabs

Version: 3 Type: Tab 0 ratings
1 star 2 stars 3 stars 4 stars 5 stars
comments

What Ever Happened Tab

   
What Ever Happened.

Artist: The Strokes
Title: What Ever Happened
Album: Room On Fire
Tabbed By: Uriel  Mera   (mexico city)

Guitar 1:Albert Hamond Jr.
Intro.
     (palm-muted)           x 65
E||-------------------------------|
B||-------------------------------|
G||-------------------------------|
D||---9-9-9-9-9-9-9-9-9-9-9-9-9---|
A||-------------------------------|
E||-------------------------------|

Verse A.            x 32                      x16                   x16
E||----------------------|------------------------|---------------------|
B||----------------------|------------------------|---------------------|
G||----------------------|------------------------|---------------------|
D||---9-9-9-9-9-9-9-9-9--|--11-11-11-11-11-11-11--|--9-9-9-9-9-9-9-9-9--|
A||----------------------|------------------------|---------------------|
E||----------------------|------------------------|---------------------|
                    x 32                     x 16                  x 16
E||----------------------|------------------------|---------------------|
B||----------------------|------------------------|---------------------|
G||----------------------|------------------------|---------------------|
D||---9-9-9-9-9-9-9-9-9--|--11-11-11-11-11-11-11--|--9-9-9-9-9-9-9-9-9--|
A||----------------------|------------------------|---------------------|
E||----------------------|------------------------|---------------------|

E||-------------------------------------|
B||-------------------------------------|
G||-------------------------------------|
D||---6-6-6-6-6-6-6-6-6-6-6-6-6-6-6-6---|
A||-------------------------------------|
E||-------------------------------------|

Verse B.                                 x 9
E||------------------------------------------|--------------------------|
B||------------------------------------------|--------------------------|
G||-----------------------9--9--9-8-8-8-8-8--|--------------------------|
D||----9--9--9-8-8-8-8-8-11-11-11-9-9-9-9-9--|---9--9--9-8-8-8-8-8-x13--|
A||---11-11-11-9-9-9-9-9---------------------|--11-11-11-9-9-9-9-9------|
E||------------------------------------------|--------------------------|

Chorus.             x4                  x2                 x 2
E||--------------------|-------------------|-------------------|
B||--------------------|-------------------|-------------------|
G||--------------------|-------------------|-------------------|
D||--------------------|--6-6-6-6-6-6-6-6--|-------------------|
A||---6-6-6-6-6-6-6-6--|--4-4-4-7-7-7-7-7--|--6-6-6-6-6-6-6-6--|
E||---7-7-7-4-4-4-4-4--|-------------------|--7-7-7-4-4-4-4-4--|

Verse B.                                 x 3
E||------------------------------------------|--------------------------|
B||------------------------------------------|--------------------------|
G||-----------------------9--9--9-8-8-8-8-8--|--------------------------|
D||----9--9--9-8-8-8-8-8-11-11-11-9-9-9-9-9--|---9--9--9-8-8-8-8-8-x13--|
A||---11-11-11-9-9-9-9-9---------------------|--11-11-11-9-9-9-9-9------|
E||------------------------------------------|--------------------------|

 Intro.    (palm-muted)      x 65
E||-------------------------------|
B||-------------------------------|
G||-------------------------------|
D||---9-9-9-9-9-9-9-9-9-9-9-9-9---|
A||-------------------------------|
E||-------------------------------|

Verse A.            x 32                      x16                   x16
E||----------------------|------------------------|---------------------|
B||----------------------|------------------------|---------------------|
G||----------------------|------------------------|---------------------|
D||---9-9-9-9-9-9-9-9-9--|--11-11-11-11-11-11-11--|--9-9-9-9-9-9-9-9-9--|
A||----------------------|------------------------|---------------------|
E||----------------------|------------------------|---------------------|
                     x32                      x16                  x 16
E||----------------------|------------------------|---------------------|
B||----------------------|------------------------|---------------------|
G||----------------------|------------------------|---------------------|
D||---9-9-9-9-9-9-9-9-9--|--11-11-11-11-11-11-11--|--9-9-9-9-9-9-9-9-9--|
A||----------------------|------------------------|---------------------|
E||----------------------|------------------------|---------------------|

  In ends up. Guitar 1: Albert.
E||---------------------------------------------------------------------|
B||--9-9-9-9-9-9-9-9-9-9-9-9-9-9-9-9-9-9-9-9-9-9-9-9-9-9-9-9-9-9-9-9/19-|
G||--x-x-x-x-x-x-x-x-x-x-x-x-x-x-x-x-x-x-x-x-x-x-x-x-x-x-x-x-x-x-x-x--x-|
D||--6-6-6-6-6-6-6-6-6-6-6-6-6-6-6-6-6-6-6-6-6-6-6-6-6-6-6-6-6-6-6-6/16-|
A||---------------------------------------------------------------------|
E||---------------------------------------------------------------------|

[ Tab from: http://www.guitartabs.cc/tabs/s/strokes/what_ever_happened_tab_ver_3.html ]
Guitar 2:Nick Valensi.
Intro.
          (palm-muted)      x 65
E||-------------------------------|
B||-------------------------------|
G||-------------------------------|
D||-------------------------------|
A||-------------------------------|
E||---7-7-7-7-7-7-7-7-7-7-7-7-7---|
                                                                            VerseA.      
                                                  x 48
E||------------------------------------|-----------------------------|
B||------------------------------------|--5-5-5-5-5-5-5-5-5-5-5-5-5--|
G||---4-4-4-4-4-4-4-4-4-4-4-4-4-4-4-4--|--4-4-4-4-4-4-4-4-4-4-4-4-4--|
D||---4-4-4-4-4-4-4-4-4-4-4-4-4-4-4-4--|--6-6-6-6-6-6-6-6-6-6-6-6-6--|
A||---6-6-6-6-6-6-6-6-6-6-6-6-6-6-6-6--|-----------------------------|
E||------------------------------------|-----------------------------|
                                                                x 64
E||------------------------------------|-----------------------------|
B||------------------------------------|--5-5-5-5-5-5-5-5-5-5-5-5-5--|
G||---4-4-4-4-4-4-4-4-4-4-4-4-4-4-4-4--|--4-4-4-4-4-4-4-4-4-4-4-4-4--|
D||---4-4-4-4-4-4-4-4-4-4-4-4-4-4-4-4--|--6-6-6-6-6-6-6-6-6-6-6-6-6--|
A||---6-6-6-6-6-6-6-6-6-6-6-6-6-6-6-6--|-----------------------------|
E||------------------------------------|-----------------------------|

Solo.
E||---4---2---------4-----2-------4---2---------4-----2--------------|
B||-----4----4-2------4-0---4-------4----4-2------4-0---4------------|
G||--------------4------------4--------------4------------4-/8-------|
D||------------------------------------------------------------------|
A||------------------------------------------------------------------|
E||------------------------------------------------------------------|
                                       x 2
E||---7-------6----9-----------------------|
B||-------9------------11---11/12-12-11-9--|
G||-----8---8--------9----9----------------|
D||----------------------------------------|
A||----------------------------------------|
E||----------------------------------------|

Verse B.                           x 5
E||------------------------------------|-----------------------|
B||-------------------5-5-5-4-4-4-4-4--|-----------------------|
G||---4-4-4-3-3-3-3-3-6-6-6-4-4-4-4-4--|--4-4-4-3-3-3-3-3-x13--|
D||---6-6-6-4-4-4-4-4------------------|--6-6-6-4-4-4-4-4------|
A||------------------------------------|-----------------------|
E||------------------------------------|-----------------------|

Chorus.
E||------------------------|--------------------|----------------------|
B||---4-4-4-4-4-4-4-4-4-4-4/-9.-9.-9.-9.-9.-9.- |-9-9-9-9-9-9-9-9-9-9--|
G||------------------------|--------------------|----------------------|
D||------------------------|--------------------|----------------------|
A||------------------------|--------------------|----------------------|
E||------------------------|--------------------|----------------------|

Verse B.                           x 3
E||------------------------------------|-----------------------|
B||-------------------5-5-5-4-4-4-4-4--|-----------------------|
G||---4-4-4-3-3-3-3-3-6-6-6-4-4-4-4-4--|--4-4-4-3-3-3-3-3-x13--|
D||---6-6-6-4-4-4-4-4------------------|--6-6-6-4-4-4-4-4------|
A||------------------------------------|-----------------------|
E||------------------------------------|-----------------------|

 Intro.     (palm-muted)     x 65
E||-------------------------------|
B||-------------------------------|
G||-------------------------------|
D||-------------------------------|
A||-------------------------------|
E||---7-7-7-7-7-7-7-7-7-7-7-7-7---|

VerseA.                                                         x 48
E||------------------------------------|-----------------------------|
B||------------------------------------|--5-5-5-5-5-5-5-5-5-5-5-5-5--|
G||---4-4-4-4-4-4-4-4-4-4-4-4-4-4-4-4--|--4-4-4-4-4-4-4-4-4-4-4-4-4--|
D||---4-4-4-4-4-4-4-4-4-4-4-4-4-4-4-4--|--6-6-6-6-6-6-6-6-6-6-6-6-6--|
A||---6-6-6-6-6-6-6-6-6-6-6-6-6-6-6-6--|-----------------------------|
E||------------------------------------|-----------------------------|
                                                                x 48
E||------------------------------------|-----------------------------|
B||------------------------------------|--5-5-5-5-5-5-5-5-5-5-5-5-5--|
G||---4-4-4-4-4-4-4-4-4-4-4-4-4-4-4-4--|--4-4-4-4-4-4-4-4-4-4-4-4-4--|
D||---4-4-4-4-4-4-4-4-4-4-4-4-4-4-4-4--|--6-6-6-6-6-6-6-6-6-6-6-6-6--|
A||---6-6-6-6-6-6-6-6-6-6-6-6-6-6-6-6--|-----------------------------|
E||------------------------------------|-----------------------------|

  In ends up. Guitar 2:Nick.
E||-44/55/66/77/88/99/1010/1111/1212/1313/1414/1515/1616/1717/1818/1919-|
B||-xx/xx/xx/xx/xx/xx/-x-x/-x-x/-x-x/-x-x/-x-x/-x-x/-x-x/-x-x/-x-x/-x-x-|
G||-11/22/33/44/55/66/-7-7/-8-8/-9-9/1010/1111/1212/1313/1414/1515/1616-|
D||---------------------------------------------------------------------|
A||---------------------------------------------------------------------|
E||---------------------------------------------------------------------|

That is everything.
Any comment or suggestion please write to
Multimera@hotmail.com
Comments